  0
SECTION
  2
HEADER
  9
$ACADVER
  1
AC1015
  9
$ACADMAINTVER
 70
     6
  9
$DWGCODEPAGE
  3
ANSI_1254
  9
$INSBASE
 10
0.0
 20
0.0
 30
0.0
  9
$EXTMIN
 10
0.0
 20
0.0
 30
0.0
  9
$EXTMAX
 10
279.4
 20
215.9
 30
0.0
  9
$LIMMIN
 10
0.0
 20
0.0
  9
$LIMMAX
 10
279.4
 20
215.9
  9
$ORTHOMODE
 70
     0
  9
$REGENMODE
 70
     1
  9
$FILLMODE
 70
     1
  9
$QTEXTMODE
 70
     0
  9
$MIRRTEXT
 70
     1
  9
$LTSCALE
 40
1.0
  9
$ATTMODE
 70
     1
  9
$TEXTSIZE
 40
3.5
  9
$TRACEWID
 40
1.0
  9
$TEXTSTYLE
  7
Standard
  9
$CLAYER
  8
0
  9
$CELTYPE
  6
ByLayer
  9
$CECOLOR
 62
   256
  9
$CELTSCALE
 40
1.0
  9
$DISPSILH
 70
     0
  9
$DIMSCALE
 40
1.0
  9
$DIMASZ
 40
3.5
  9
$DIMEXO
 40
1.0
  9
$DIMDLI
 40
3.75
  9
$DIMRND
 40
0.0
  9
$DIMDLE
 40
0.0
  9
$DIMEXE
 40
1.0
  9
$DIMTP
 40
0.0
  9
$DIMTM
 40
0.0
  9
$DIMTXT
 40
3.5
  9
$DIMCEN
 40
2.5
  9
$DIMTSZ
 40
0.0
  9
$DIMTOL
 70
     0
  9
$DIMLIM
 70
     0
  9
$DIMTIH
 70
     1
  9
$DIMTOH
 70
     1
  9
$DIMSE1
 70
     0
  9
$DIMSE2
 70
     0
  9
$DIMTAD
 70
     1
  9
$DIMZIN
 70
     0
  9
$DIMBLK
  1

  9
$DIMASO
 70
     1
  9
$DIMSHO
 70
     1
  9
$DIMPOST
  1

  9
$DIMAPOST
  1

  9
$DIMALT
 70
     0
  9
$DIMALTD
 70
     3
  9
$DIMALTF
 40
0.0393700787
  9
$DIMLFAC
 40
1.0
  9
$DIMTOFL
 70
     1
  9
$DIMTVP
 40
0.0
  9
$DIMTIX
 70
     0
  9
$DIMSOXD
 70
     0
  9
$DIMSAH
 70
     0
  9
$DIMBLK1
  1

  9
$DIMBLK2
  1

  9
$DIMSTYLE
  2
ISO-25
  9
$DIMCLRD
 70
     0
  9
$DIMCLRE
 70
     0
  9
$DIMCLRT
 70
     0
  9
$DIMTFAC
 40
1.0
  9
$DIMGAP
 40
1.524
  9
$DIMJUST
 70
     0
  9
$DIMSD1
 70
     0
  9
$DIMSD2
 70
     0
  9
$DIMTOLJ
 70
     0
  9
$DIMTZIN
 70
     0
  9
$DIMALTZ
 70
     0
  9
$DIMALTTZ
 70
     0
  9
$DIMUPT
 70
     0
  9
$DIMDEC
 70
     2
  9
$DIMTDEC
 70
     2
  9
$DIMALTU
 70
     2
  9
$DIMALTTD
 70
     3
  9
$DIMTXSTY
  7
Standard
  9
$DIMAUNIT
 70
     0
  9
$DIMADEC
 70
     2
  9
$DIMALTRND
 40
0.0
  9
$DIMAZIN
 70
     0
  9
$DIMDSEP
 70
    44
  9
$DIMATFIT
 70
     3
  9
$DIMFRAC
 70
     0
  9
$DIMLDRBLK
  1

  9
$DIMLUNIT
 70
     2
  9
$DIMLWD
 70
    -2
  9
$DIMLWE
 70
    -2
  9
$DIMTMOVE
 70
     0
  9
$LUNITS
 70
     2
  9
$LUPREC
 70
     2
  9
$SKETCHINC
 40
1.0
  9
$FILLETRAD
 40
10.0
  9
$AUNITS
 70
     0
  9
$AUPREC
 70
     2
  9
$MENU
  1
.
  9
$ELEVATION
 40
0.0
  9
$PELEVATION
 40
0.0
  9
$THICKNESS
 40
0.0
  9
$LIMCHECK
 70
     0
  9
$CHAMFERA
 40
0.0
  9
$CHAMFERB
 40
0.0
  9
$CHAMFERC
 40
0.0
  9
$CHAMFERD
 40
0.0
  9
$SKPOLY
 70
     0
  9
$TDCREATE
 40
2459741.592501076
  9
$TDUCREATE
 40
2459741.467501076
  9
$TDUPDATE
 40
2459741.592503067
  9
$TDUUPDATE
 40
2459741.467503067
  9
$TDINDWG
 40
0.0000000116
  9
$TDUSRTIMER
 40
0.0000000116
  9
$USRTIMER
 70
     1
  9
$ANGBASE
 50
0.0
  9
$ANGDIR
 70
     0
  9
$PDMODE
 70
     0
  9
$PDSIZE
 40
-1.0
  9
$PLINEWID
 40
0.0
  9
$SPLFRAME
 70
     0
  9
$SPLINETYPE
 70
     6
  9
$SPLINESEGS
 70
     8
  9
$HANDSEED
  5
164
  9
$SURFTAB1
 70
     6
  9
$SURFTAB2
 70
     6
  9
$SURFTYPE
 70
     6
  9
$SURFU
 70
     6
  9
$SURFV
 70
     6
  9
$UCSBASE
  2

  9
$UCSNAME
  2

  9
$UCSORG
 10
0.0
 20
0.0
 30
0.0
  9
$UCSXDIR
 10
1.0
 20
0.0
 30
0.0
  9
$UCSYDIR
 10
0.0
 20
1.0
 30
0.0
  9
$UCSORTHOREF
  2

  9
$UCSORTHOVIEW
 70
     0
  9
$UCSORGTOP
 10
0.0
 20
0.0
 30
0.0
  9
$UCSORGBOTTOM
 10
0.0
 20
0.0
 30
0.0
  9
$UCSORGLEFT
 10
0.0
 20
0.0
 30
0.0
  9
$UCSORGRIGHT
 10
0.0
 20
0.0
 30
0.0
  9
$UCSORGFRONT
 10
0.0
 20
0.0
 30
0.0
  9
$UCSORGBACK
 10
0.0
 20
0.0
 30
0.0
  9
$PUCSBASE
  2

  9
$PUCSNAME
  2

  9
$PUCSORG
 10
0.0
 20
0.0
 30
0.0
  9
$PUCSXDIR
 10
1.0
 20
0.0
 30
0.0
  9
$PUCSYDIR
 10
0.0
 20
1.0
 30
0.0
  9
$PUCSORTHOREF
  2

  9
$PUCSORTHOVIEW
 70
     0
  9
$PUCSORGTOP
 10
0.0
 20
0.0
 30
0.0
  9
$PUCSORGBOTTOM
 10
0.0
 20
0.0
 30
0.0
  9
$PUCSORGLEFT
 10
0.0
 20
0.0
 30
0.0
  9
$PUCSORGRIGHT
 10
0.0
 20
0.0
 30
0.0
  9
$PUCSORGFRONT
 10
0.0
 20
0.0
 30
0.0
  9
$PUCSORGBACK
 10
0.0
 20
0.0
 30
0.0
  9
$USERI1
 70
     0
  9
$USERI2
 70
     0
  9
$USERI3
 70
     0
  9
$USERI4
 70
     0
  9
$USERI5
 70
     0
  9
$USERR1
 40
0.0
  9
$USERR2
 40
0.0
  9
$USERR3
 40
0.0
  9
$USERR4
 40
0.0
  9
$USERR5
 40
0.0
  9
$WORLDVIEW
 70
     1
  9
$SHADEDGE
 70
     3
  9
$SHADEDIF
 70
    70
  9
$TILEMODE
 70
     1
  9
$MAXACTVP
 70
    64
  9
$PINSBASE
 10
0.0
 20
0.0
 30
0.0
  9
$PLIMCHECK
 70
     0
  9
$PEXTMIN
 10
1.0000000000E+20
 20
1.0000000000E+20
 30
1.0000000000E+20
  9
$PEXTMAX
 10
-1.0000000000E+20
 20
-1.0000000000E+20
 30
-1.0000000000E+20
  9
$PLIMMIN
 10
0.0
 20
0.0
  9
$PLIMMAX
 10
420.0
 20
297.0
  9
$UNITMODE
 70
     0
  9
$VISRETAIN
 70
     1
  9
$PLINEGEN
 70
     0
  9
$PSLTSCALE
 70
     1
  9
$TREEDEPTH
 70
  3020
  9
$CMLSTYLE
  2
Standard
  9
$CMLJUST
 70
     0
  9
$CMLSCALE
 40
20.0
  9
$PROXYGRAPHICS
 70
     1
  9
$MEASUREMENT
 70
     1
  9
$CELWEIGHT
370
    -1
  9
$ENDCAPS
280
     0
  9
$JOINSTYLE
280
     0
  9
$LWDISPLAY
290
     1
  9
$INSUNITS
 70
     4
  9
$HYPERLINKBASE
  1

  9
$STYLESHEET
  1

  9
$XEDIT
290
     1
  9
$CEPSNTYPE
380
     0
  9
$PSTYLEMODE
290
     1
  9
$FINGERPRINTGUID
  2
{808063cb-769a-405e-bc5a-c778bdb425ea}
  9
$VERSIONGUID
  2
{FAEB1C32-E019-11D5-929B-00C0DF256EC4}
  9
$EXTNAMES
290
     1
  9
$PSVPSCALE
 40
0.0
  9
$OLESTARTUP
290
     0
  0
ENDSEC
  0
SECTION
  2
CLASSES
  0
CLASS
  1
ACDBDICTIONARYWDFLT
  2
AcDbDictionaryWithDefault
  3
ObjectDBX Classes
 90
        0
280
     0
281
     0
  0
CLASS
  1
VISUALSTYLE
  2
AcDbVisualStyle
  3
ObjectDBX Classes
 90
     4095
280
     0
281
     0
  0
CLASS
  1
MATERIAL
  2
AcDbMaterial
  3
ObjectDBX Classes
 90
     1153
280
     0
281
     0
  0
CLASS
  1
SCALE
  2
AcDbScale
  3
ObjectDBX Classes
 90
     1153
280
     0
281
     0
  0
CLASS
  1
TABLESTYLE
  2
AcDbTableStyle
  3
ObjectDBX Classes
 90
     4095
280
     0
281
     0
  0
CLASS
  1
MLEADERSTYLE
  2
AcDbMLeaderStyle
  3
ACDB_MLEADERSTYLE_CLASS
 90
     4095
280
     0
281
     0
  0
CLASS
  1
SUN
  2
AcDbSun
  3
SCENEOE
 90
     1153
280
     0
281
     0
  0
CLASS
  1
ACDBPLACEHOLDER
  2
AcDbPlaceHolder
  3
ObjectDBX Classes
 90
        0
280
     0
281
     0
  0
CLASS
  1
LAYOUT
  2
AcDbLayout
  3
ObjectDBX Classes
 90
        0
280
     0
281
     0
  0
ENDSEC
  0
SECTION
  2
TABLES
  0
TABLE
  2
VPORT
  5
8
330
0
100
AcDbSymbolTable
 70
     1
  0
VPORT
  5
29
330
8
100
AcDbSymbolTableRecord
100
AcDbViewportTableRecord
  2
*Active
 70
     0
 10
0.0
 20
0.0
 11
1.0
 21
1.0
 12
139.7
 22
107.95
 13
0.0
 23
0.0
 14
10.0
 24
10.0
 15
10.0
 25
10.0
 16
0.0
 26
0.0
 36
1.0
 17
0.0
 27
0.0
 37
0.0
 40
215.9
 41
1.2941176471
 42
50.0
 43
0.0
 44
0.0
 50
0.0
 51
0.0
 71
     0
 72
  2000
 73
     1
 74
     3
 75
     0
 76
     0
 77
     0
 78
     0
281
     0
 65
     1
110
0.0
120
0.0
130
0.0
111
1.0
121
0.0
131
0.0
112
0.0
122
1.0
132
0.0
 79
     0
146
0.0
  0
ENDTAB
  0
TABLE
  2
LTYPE
  5
5
330
0
100
AcDbSymbolTable
 70
     6
  0
LTYPE
  5
14
330
5
100
AcDbSymbolTableRecord
100
AcDbLinetypeTableRecord
  2
ByBlock
 70
     0
  3

 72
    65
 73
     0
 40
0.0
  0
LTYPE
  5
15
330
5
100
AcDbSymbolTableRecord
100
AcDbLinetypeTableRecord
  2
ByLayer
 70
     0
  3

 72
    65
 73
     0
 40
0.0
  0
LTYPE
  5
16
330
5
100
AcDbSymbolTableRecord
100
AcDbLinetypeTableRecord
  2
Continuous
 70
     0
  3
Solid line
 72
    65
 73
     0
 40
0.0
  0
LTYPE
  5
6E
330
5
100
AcDbSymbolTableRecord
100
AcDbLinetypeTableRecord
  2
HIDDEN
 70
     0
  3
Hidden __ __ __ __ __ __ __ __ __ __ __ __ __ __
 72
    65
 73
     2
 40
1.905
 49
1.27
 74
     0
 49
-0.635
 74
     0
  0
LTYPE
  5
6F
330
5
100
AcDbSymbolTableRecord
100
AcDbLinetypeTableRecord
  2
PHANTOM
 70
     0
  3
Phantom ______  __  __  ______  __  __  ______
 72
    65
 73
     6
 40
12.7
 49
6.35
 74
     0
 49
-1.27
 74
     0
 49
1.27
 74
     0
 49
-1.27
 74
     0
 49
1.27
 74
     0
 49
-1.27
 74
     0
  0
LTYPE
  5
70
330
5
100
AcDbSymbolTableRecord
100
AcDbLinetypeTableRecord
  2
CENTER
 70
     0
  3
Center ____ _ ____ _ ____ _ ____ _ ____ _ ____
 72
    65
 73
     4
 40
10.16
 49
6.35
 74
     0
 49
-1.27
 74
     0
 49
1.27
 74
     0
 49
-1.27
 74
     0
  0
LTYPE
  5
71
330
5
100
AcDbSymbolTableRecord
100
AcDbLinetypeTableRecord
  2
CENTERX2
 70
     0
  3
Center (2x) ________  __  ________  __  _____
 72
    65
 73
     4
 40
20.32
 49
12.7
 74
     0
 49
-2.54
 74
     0
 49
2.54
 74
     0
 49
-2.54
 74
     0
  0
LTYPE
  5
72
330
5
100
AcDbSymbolTableRecord
100
AcDbLinetypeTableRecord
  2
DOT2
 70
     0
  3
Dot (.5x) ........................................
 72
    65
 73
     2
 40
0.635
 49
0.0
 74
     0
 49
-0.635
 74
     0
  0
ENDTAB
  0
TABLE
  2
LAYER
  5
2
330
0
100
AcDbSymbolTable
 70
    17
  0
LAYER
  5
10
330
2
100
AcDbSymbolTableRecord
100
AcDbLayerTableRecord
  2
0
 70
     0
 62
     7
  6
Continuous
370
    -3
390
F
  0
LAYER
  5
73
330
2
100
AcDbSymbolTableRecord
100
AcDbLayerTableRecord
  2
FORMAT
 70
     0
 62
     7
  6
Continuous
370
    -3
390
F
  0
LAYER
  5
74
330
2
100
AcDbSymbolTableRecord
100
AcDbLayerTableRecord
  2
YARDIMCI_GEOMETRI
 70
     0
 62
    -6
  6
Continuous
290
     0
370
    -3
390
F
  0
LAYER
  5
75
330
2
100
AcDbSymbolTableRecord
100
AcDbLayerTableRecord
  2
SAYFA_CERCEVESI
 70
     0
 62
     7
  6
Continuous
370
    25
390
F
  0
LAYER
  5
76
330
2
100
AcDbSymbolTableRecord
100
AcDbLayerTableRecord
  2
ANTET
 70
     0
 62
     7
  6
Continuous
370
    -3
390
F
  0
LAYER
  5
77
330
2
100
AcDbSymbolTableRecord
100
AcDbLayerTableRecord
  2
OLCU
 70
     0
 62
   150
  6
Continuous
370
    -3
390
F
  0
LAYER
  5
78
330
2
100
AcDbSymbolTableRecord
100
AcDbLayerTableRecord
  2
METIN
 70
     0
 62
    96
  6
Continuous
370
    -3
390
F
  0
LAYER
  5
79
330
2
100
AcDbSymbolTableRecord
100
AcDbLayerTableRecord
  2
BALON
 70
     0
 62
     5
  6
Continuous
370
    -3
390
F
  0
LAYER
  5
7A
330
2
100
AcDbSymbolTableRecord
100
AcDbLayerTableRecord
  2
VURGU
 70
     0
 62
     7
  6
Continuous
370
    -3
390
F
  0
LAYER
  5
7B
330
2
100
AcDbSymbolTableRecord
100
AcDbLayerTableRecord
  2
SILIK
 70
     0
 62
     7
  6
Continuous
370
    -3
390
F
  0
LAYER
  5
7C
330
2
100
AcDbSymbolTableRecord
100
AcDbLayerTableRecord
  2
MODEL
 70
     0
 62
     7
  6
Continuous
370
    -3
390
F
  0
LAYER
  5
7D
330
2
100
AcDbSymbolTableRecord
100
AcDbLayerTableRecord
  2
DETAYLANDıRMA
 70
     0
 62
   190
  6
Continuous
370
    -3
390
F
  0
LAYER
  5
7E
330
2
100
AcDbSymbolTableRecord
100
AcDbLayerTableRecord
  2
TOLERANS
 70
     0
 62
   230
  6
Continuous
370
    -3
390
F
  0
LAYER
  5
7F
330
2
100
AcDbSymbolTableRecord
100
AcDbLayerTableRecord
  2
MERKEZ_CIZGILERI
 70
     0
 62
    30
  6
Continuous
370
    -3
390
F
  0
LAYER
  5
80
330
2
100
AcDbSymbolTableRecord
100
AcDbLayerTableRecord
  2
KESIT-DETAY_CIZGILERI
 70
     0
 62
     7
  6
Continuous
370
    -3
390
F
  0
LAYER
  5
81
330
2
100
AcDbSymbolTableRecord
100
AcDbLayerTableRecord
  2
\U+041E\U+0421\U+0415\U+0412\U+042B\U+0415
 70
     0
 62
     7
  6
Continuous
370
    -3
390
F
  0
LAYER
  5
82
330
2
100
AcDbSymbolTableRecord
100
AcDbLayerTableRecord
  2
\U+0412\U+041E\U+0414\U+042F\U+041D\U+042B\U+0415_\U+0417\U+041D\U+0410\U+041A\U+0418
 70
     0
 62
    11
  6
Continuous
370
    -3
390
F
  0
ENDTAB
  0
TABLE
  2
STYLE
  5
3
330
0
100
AcDbSymbolTable
 70
     1
  0
STYLE
  5
11
330
3
100
AcDbSymbolTableRecord
100
AcDbTextStyleTableRecord
  2
Standard
 70
     0
 40
0.0
 41
1.0
 50
0.0
 71
     0
 42
3.5
  3
txt
  4

  0
ENDTAB
  0
TABLE
  2
VIEW
  5
6
330
0
100
AcDbSymbolTable
 70
     0
  0
ENDTAB
  0
TABLE
  2
UCS
  5
7
330
0
100
AcDbSymbolTable
 70
     0
  0
ENDTAB
  0
TABLE
  2
APPID
  5
9
330
0
100
AcDbSymbolTable
 70
     1
  0
APPID
  5
12
330
9
100
AcDbSymbolTableRecord
100
AcDbRegAppTableRecord
  2
ACAD
 70
     0
  0
ENDTAB
  0
TABLE
  2
DIMSTYLE
  5
A
330
0
100
AcDbSymbolTable
 70
     1
100
AcDbDimStyleTable
  0
DIMSTYLE
105
27
330
A
100
AcDbSymbolTableRecord
100
AcDbDimStyleTableRecord
  2
ISO-25
 70
     0
 41
2.5
 42
0.625
 43
3.75
 44
1.25
 73
     0
 74
     0
 77
     1
 78
     8
140
2.5
141
2.5
143
0.0393700787
147
0.625
171
     3
172
     1
178
     0
271
     2
272
     2
274
     3
278
    44
283
     0
284
     8
340
11
  0
ENDTAB
  0
TABLE
  2
BLOCK_RECORD
  5
1
330
0
100
AcDbSymbolTable
 70
     9
  0
BLOCK_RECORD
  5
1F
330
1
100
AcDbSymbolTableRecord
100
AcDbBlockTableRecord
  2
*Model_Space
340
22
  0
BLOCK_RECORD
  5
1B
330
1
100
AcDbSymbolTableRecord
100
AcDbBlockTableRecord
  2
*Paper_Space
340
1E
  0
BLOCK_RECORD
  5
23
330
1
100
AcDbSymbolTableRecord
100
AcDbBlockTableRecord
  2
*Paper_Space0
340
26
  0
BLOCK_RECORD
  5
97
330
1
100
AcDbSymbolTableRecord
100
AcDbBlockTableRecord
  2
SW_CENTERMARKSYMBOL_0
340
0
102
{BLKREFS
331
A2
102
}
  0
BLOCK_RECORD
  5
A3
330
1
100
AcDbSymbolTableRecord
100
AcDbBlockTableRecord
  2
SW_CENTERMARKSYMBOL_1
340
0
102
{BLKREFS
331
AE
102
}
  0
BLOCK_RECORD
  5
AF
330
1
100
AcDbSymbolTableRecord
100
AcDbBlockTableRecord
  2
SW_CENTERMARKSYMBOL_2
340
0
102
{BLKREFS
331
BA
102
}
  0
BLOCK_RECORD
  5
BB
330
1
100
AcDbSymbolTableRecord
100
AcDbBlockTableRecord
  2
SW_CENTERMARKSYMBOL_3
340
0
102
{BLKREFS
331
C6
102
}
  0
BLOCK_RECORD
  5
C7
330
1
100
AcDbSymbolTableRecord
100
AcDbBlockTableRecord
  2
SW_CENTERMARKSYMBOL_4
340
0
102
{BLKREFS
331
D2
102
}
  0
BLOCK_RECORD
  5
D3
330
1
100
AcDbSymbolTableRecord
100
AcDbBlockTableRecord
  2
SW_CENTERMARKSYMBOL_5
340
0
102
{BLKREFS
331
DE
102
}
  0
BLOCK_RECORD
  5
DF
330
1
100
AcDbSymbolTableRecord
100
AcDbBlockTableRecord
  2
SW_CENTERMARKSYMBOL_6
340
0
102
{BLKREFS
331
EA
102
}
  0
BLOCK_RECORD
  5
EB
330
1
100
AcDbSymbolTableRecord
100
AcDbBlockTableRecord
  2
SW_CENTERMARKSYMBOL_7
340
0
102
{BLKREFS
331
F6
102
}
  0
ENDTAB
  0
ENDSEC
  0
SECTION
  2
BLOCKS
  0
BLOCK
  5
20
330
1F
100
AcDbEntity
  8
0
100
AcDbBlockBegin
  2
*Model_Space
 70
     0
 10
0.0
 20
0.0
 30
0.0
  3
*Model_Space
  1

  0
ENDBLK
  5
21
330
1F
100
AcDbEntity
  8
0
100
AcDbBlockEnd
  0
BLOCK
  5
1C
330
1B
100
AcDbEntity
 67
     1
  8
0
100
AcDbBlockBegin
  2
*Paper_Space
 70
     0
 10
0.0
 20
0.0
 30
0.0
  3
*Paper_Space
  1

  0
ENDBLK
  5
1D
330
1B
100
AcDbEntity
 67
     1
  8
0
100
AcDbBlockEnd
  0
BLOCK
  5
24
330
23
100
AcDbEntity
  8
0
100
AcDbBlockBegin
  2
*Paper_Space0
 70
     0
 10
0.0
 20
0.0
 30
0.0
  3
*Paper_Space0
  1

  0
ENDBLK
  5
25
330
23
100
AcDbEntity
  8
0
100
AcDbBlockEnd
  0
BLOCK
  5
98
330
97
100
AcDbEntity
  8
0
100
AcDbBlockBegin
  2
SW_CENTERMARKSYMBOL_0
 70
     0
 10
0.0
 20
0.0
 30
0.0
  3
SW_CENTERMARKSYMBOL_0
  1

  0
LINE
  5
9A
330
97
100
AcDbEntity
  8
FORMAT
 62
     0
100
AcDbLine
 10
0.0
 20
0.0
 30
0.0
 11
0.0
 21
2.5
 31
0.0
  0
LINE
  5
9B
330
97
100
AcDbEntity
  8
FORMAT
 62
     0
100
AcDbLine
 10
0.0
 20
0.0
 30
0.0
 11
-2.5
 21
0.0
 31
0.0
  0
LINE
  5
9C
330
97
100
AcDbEntity
  8
FORMAT
 62
     0
100
AcDbLine
 10
0.0
 20
0.0
 30
0.0
 11
0.0
 21
-2.5
 31
0.0
  0
LINE
  5
9D
330
97
100
AcDbEntity
  8
FORMAT
 62
     0
100
AcDbLine
 10
0.0
 20
0.0
 30
0.0
 11
2.5
 21
0.0
 31
0.0
  0
LINE
  5
9E
330
97
100
AcDbEntity
  8
FORMAT
 62
     0
100
AcDbLine
 10
0.0
 20
5.0
 30
0.0
 11
0.0
 21
145.0
 31
0.0
  0
LINE
  5
9F
330
97
100
AcDbEntity
  8
FORMAT
 62
     0
100
AcDbLine
 10
-5.0
 20
0.0
 30
0.0
 11
-145.0
 21
0.0
 31
0.0
  0
LINE
  5
A0
330
97
100
AcDbEntity
  8
FORMAT
 62
     0
100
AcDbLine
 10
0.0
 20
-5.0
 30
0.0
 11
0.0
 21
-145.0
 31
0.0
  0
LINE
  5
A1
330
97
100
AcDbEntity
  8
FORMAT
 62
     0
100
AcDbLine
 10
5.0
 20
0.0
 30
0.0
 11
145.0
 21
0.0
 31
0.0
  0
ENDBLK
  5
99
330
97
100
AcDbEntity
  8
0
100
AcDbBlockEnd
  0
BLOCK
  5
A4
330
A3
100
AcDbEntity
  8
0
100
AcDbBlockBegin
  2
SW_CENTERMARKSYMBOL_1
 70
     0
 10
0.0
 20
0.0
 30
0.0
  3
SW_CENTERMARKSYMBOL_1
  1

  0
LINE
  5
A6
330
A3
100
AcDbEntity
  8
FORMAT
 62
     0
100
AcDbLine
 10
0.0
 20
0.0
 30
0.0
 11
0.0
 21
2.5
 31
0.0
  0
LINE
  5
A7
330
A3
100
AcDbEntity
  8
FORMAT
 62
     0
100
AcDbLine
 10
0.0
 20
0.0
 30
0.0
 11
-2.5
 21
0.0
 31
0.0
  0
LINE
  5
A8
330
A3
100
AcDbEntity
  8
FORMAT
 62
     0
100
AcDbLine
 10
0.0
 20
0.0
 30
0.0
 11
0.0
 21
-2.5
 31
0.0
  0
LINE
  5
A9
330
A3
100
AcDbEntity
  8
FORMAT
 62
     0
100
AcDbLine
 10
0.0
 20
0.0
 30
0.0
 11
2.5
 21
0.0
 31
0.0
  0
LINE
  5
AA
330
A3
100
AcDbEntity
  8
FORMAT
 62
     0
100
AcDbLine
 10
0.0
 20
5.0
 30
0.0
 11
0.0
 21
13.5
 31
0.0
  0
LINE
  5
AB
330
A3
100
AcDbEntity
  8
FORMAT
 62
     0
100
AcDbLine
 10
-5.0
 20
0.0
 30
0.0
 11
-13.5
 21
0.0
 31
0.0
  0
LINE
  5
AC
330
A3
100
AcDbEntity
  8
FORMAT
 62
     0
100
AcDbLine
 10
0.0
 20
-5.0
 30
0.0
 11
0.0
 21
-13.5
 31
0.0
  0
LINE
  5
AD
330
A3
100
AcDbEntity
  8
FORMAT
 62
     0
100
AcDbLine
 10
5.0
 20
0.0
 30
0.0
 11
13.5
 21
0.0
 31
0.0
  0
ENDBLK
  5
A5
330
A3
100
AcDbEntity
  8
0
100
AcDbBlockEnd
  0
BLOCK
  5
B0
330
AF
100
AcDbEntity
  8
0
100
AcDbBlockBegin
  2
SW_CENTERMARKSYMBOL_2
 70
     0
 10
0.0
 20
0.0
 30
0.0
  3
SW_CENTERMARKSYMBOL_2
  1

  0
LINE
  5
B2
330
AF
100
AcDbEntity
  8
FORMAT
 62
     0
100
AcDbLine
 10
0.0
 20
0.0
 30
0.0
 11
0.0
 21
2.5
 31
0.0
  0
LINE
  5
B3
330
AF
100
AcDbEntity
  8
FORMAT
 62
     0
100
AcDbLine
 10
0.0
 20
0.0
 30
0.0
 11
-2.5
 21
0.0
 31
0.0
  0
LINE
  5
B4
330
AF
100
AcDbEntity
  8
FORMAT
 62
     0
100
AcDbLine
 10
0.0
 20
0.0
 30
0.0
 11
0.0
 21
-2.5
 31
0.0
  0
LINE
  5
B5
330
AF
100
AcDbEntity
  8
FORMAT
 62
     0
100
AcDbLine
 10
0.0
 20
0.0
 30
0.0
 11
2.5
 21
0.0
 31
0.0
  0
LINE
  5
B6
330
AF
100
AcDbEntity
  8
FORMAT
 62
     0
100
AcDbLine
 10
0.0
 20
5.0
 30
0.0
 11
0.0
 21
13.5
 31
0.0
  0
LINE
  5
B7
330
AF
100
AcDbEntity
  8
FORMAT
 62
     0
100
AcDbLine
 10
-5.0
 20
0.0
 30
0.0
 11
-13.5
 21
0.0
 31
0.0
  0
LINE
  5
B8
330
AF
100
AcDbEntity
  8
FORMAT
 62
     0
100
AcDbLine
 10
0.0
 20
-5.0
 30
0.0
 11
0.0
 21
-13.5
 31
0.0
  0
LINE
  5
B9
330
AF
100
AcDbEntity
  8
FORMAT
 62
     0
100
AcDbLine
 10
5.0
 20
0.0
 30
0.0
 11
13.5
 21
0.0
 31
0.0
  0
ENDBLK
  5
B1
330
AF
100
AcDbEntity
  8
0
100
AcDbBlockEnd
  0
BLOCK
  5
BC
330
BB
100
AcDbEntity
  8
0
100
AcDbBlockBegin
  2
SW_CENTERMARKSYMBOL_3
 70
     0
 10
0.0
 20
0.0
 30
0.0
  3
SW_CENTERMARKSYMBOL_3
  1

  0
LINE
  5
BE
330
BB
100
AcDbEntity
  8
FORMAT
 62
     0
100
AcDbLine
 10
0.0
 20
0.0
 30
0.0
 11
0.0
 21
2.5
 31
0.0
  0
LINE
  5
BF
330
BB
100
AcDbEntity
  8
FORMAT
 62
     0
100
AcDbLine
 10
0.0
 20
0.0
 30
0.0
 11
-2.5
 21
0.0
 31
0.0
  0
LINE
  5
C0
330
BB
100
AcDbEntity
  8
FORMAT
 62
     0
100
AcDbLine
 10
0.0
 20
0.0
 30
0.0
 11
0.0
 21
-2.5
 31
0.0
  0
LINE
  5
C1
330
BB
100
AcDbEntity
  8
FORMAT
 62
     0
100
AcDbLine
 10
0.0
 20
0.0
 30
0.0
 11
2.5
 21
0.0
 31
0.0
  0
LINE
  5
C2
330
BB
100
AcDbEntity
  8
FORMAT
 62
     0
100
AcDbLine
 10
0.0
 20
5.0
 30
0.0
 11
0.0
 21
13.5
 31
0.0
  0
LINE
  5
C3
330
BB
100
AcDbEntity
  8
FORMAT
 62
     0
100
AcDbLine
 10
-5.0
 20
0.0
 30
0.0
 11
-13.5
 21
0.0
 31
0.0
  0
LINE
  5
C4
330
BB
100
AcDbEntity
  8
FORMAT
 62
     0
100
AcDbLine
 10
0.0
 20
-5.0
 30
0.0
 11
0.0
 21
-13.5
 31
0.0
  0
LINE
  5
C5
330
BB
100
AcDbEntity
  8
FORMAT
 62
     0
100
AcDbLine
 10
5.0
 20
0.0
 30
0.0
 11
13.5
 21
0.0
 31
0.0
  0
ENDBLK
  5
BD
330
BB
100
AcDbEntity
  8
0
100
AcDbBlockEnd
  0
BLOCK
  5
C8
330
C7
100
AcDbEntity
  8
0
100
AcDbBlockBegin
  2
SW_CENTERMARKSYMBOL_4
 70
     0
 10
0.0
 20
0.0
 30
0.0
  3
SW_CENTERMARKSYMBOL_4
  1

  0
LINE
  5
CA
330
C7
100
AcDbEntity
  8
FORMAT
 62
     0
100
AcDbLine
 10
0.0
 20
0.0
 30
0.0
 11
0.0
 21
2.5
 31
0.0
  0
LINE
  5
CB
330
C7
100
AcDbEntity
  8
FORMAT
 62
     0
100
AcDbLine
 10
0.0
 20
0.0
 30
0.0
 11
-2.5
 21
0.0
 31
0.0
  0
LINE
  5
CC
330
C7
100
AcDbEntity
  8
FORMAT
 62
     0
100
AcDbLine
 10
0.0
 20
0.0
 30
0.0
 11
0.0
 21
-2.5
 31
0.0
  0
LINE
  5
CD
330
C7
100
AcDbEntity
  8
FORMAT
 62
     0
100
AcDbLine
 10
0.0
 20
0.0
 30
0.0
 11
2.5
 21
0.0
 31
0.0
  0
LINE
  5
CE
330
C7
100
AcDbEntity
  8
FORMAT
 62
     0
100
AcDbLine
 10
0.0
 20
5.0
 30
0.0
 11
0.0
 21
13.5
 31
0.0
  0
LINE
  5
CF
330
C7
100
AcDbEntity
  8
FORMAT
 62
     0
100
AcDbLine
 10
-5.0
 20
0.0
 30
0.0
 11
-13.5
 21
0.0
 31
0.0
  0
LINE
  5
D0
330
C7
100
AcDbEntity
  8
FORMAT
 62
     0
100
AcDbLine
 10
0.0
 20
-5.0
 30
0.0
 11
0.0
 21
-13.5
 31
0.0
  0
LINE
  5
D1
330
C7
100
AcDbEntity
  8
FORMAT
 62
     0
100
AcDbLine
 10
5.0
 20
0.0
 30
0.0
 11
13.5
 21
0.0
 31
0.0
  0
ENDBLK
  5
C9
330
C7
100
AcDbEntity
  8
0
100
AcDbBlockEnd
  0
BLOCK
  5
D4
330
D3
100
AcDbEntity
  8
0
100
AcDbBlockBegin
  2
SW_CENTERMARKSYMBOL_5
 70
     0
 10
0.0
 20
0.0
 30
0.0
  3
SW_CENTERMARKSYMBOL_5
  1

  0
LINE
  5
D6
330
D3
100
AcDbEntity
  8
FORMAT
 62
     0
100
AcDbLine
 10
0.0
 20
0.0
 30
0.0
 11
0.0
 21
2.5
 31
0.0
  0
LINE
  5
D7
330
D3
100
AcDbEntity
  8
FORMAT
 62
     0
100
AcDbLine
 10
0.0
 20
0.0
 30
0.0
 11
-2.5
 21
0.0
 31
0.0
  0
LINE
  5
D8
330
D3
100
AcDbEntity
  8
FORMAT
 62
     0
100
AcDbLine
 10
0.0
 20
0.0
 30
0.0
 11
0.0
 21
-2.5
 31
0.0
  0
LINE
  5
D9
330
D3
100
AcDbEntity
  8
FORMAT
 62
     0
100
AcDbLine
 10
0.0
 20
0.0
 30
0.0
 11
2.5
 21
0.0
 31
0.0
  0
LINE
  5
DA
330
D3
100
AcDbEntity
  8
FORMAT
 62
     0
100
AcDbLine
 10
0.0
 20
5.0
 30
0.0
 11
0.0
 21
14.5
 31
0.0
  0
LINE
  5
DB
330
D3
100
AcDbEntity
  8
FORMAT
 62
     0
100
AcDbLine
 10
-5.0
 20
0.0
 30
0.0
 11
-14.5
 21
0.0
 31
0.0
  0
LINE
  5
DC
330
D3
100
AcDbEntity
  8
FORMAT
 62
     0
100
AcDbLine
 10
0.0
 20
-5.0
 30
0.0
 11
0.0
 21
-14.5
 31
0.0
  0
LINE
  5
DD
330
D3
100
AcDbEntity
  8
FORMAT
 62
     0
100
AcDbLine
 10
5.0
 20
0.0
 30
0.0
 11
14.5
 21
0.0
 31
0.0
  0
ENDBLK
  5
D5
330
D3
100
AcDbEntity
  8
0
100
AcDbBlockEnd
  0
BLOCK
  5
E0
330
DF
100
AcDbEntity
  8
0
100
AcDbBlockBegin
  2
SW_CENTERMARKSYMBOL_6
 70
     0
 10
0.0
 20
0.0
 30
0.0
  3
SW_CENTERMARKSYMBOL_6
  1

  0
LINE
  5
E2
330
DF
100
AcDbEntity
  8
FORMAT
 62
     0
100
AcDbLine
 10
0.0
 20
0.0
 30
0.0
 11
0.0
 21
2.5
 31
0.0
  0
LINE
  5
E3
330
DF
100
AcDbEntity
  8
FORMAT
 62
     0
100
AcDbLine
 10
0.0
 20
0.0
 30
0.0
 11
-2.5
 21
0.0
 31
0.0
  0
LINE
  5
E4
330
DF
100
AcDbEntity
  8
FORMAT
 62
     0
100
AcDbLine
 10
0.0
 20
0.0
 30
0.0
 11
0.0
 21
-2.5
 31
0.0
  0
LINE
  5
E5
330
DF
100
AcDbEntity
  8
FORMAT
 62
     0
100
AcDbLine
 10
0.0
 20
0.0
 30
0.0
 11
2.5
 21
0.0
 31
0.0
  0
LINE
  5
E6
330
DF
100
AcDbEntity
  8
FORMAT
 62
     0
100
AcDbLine
 10
0.0
 20
5.0
 30
0.0
 11
0.0
 21
14.5
 31
0.0
  0
LINE
  5
E7
330
DF
100
AcDbEntity
  8
FORMAT
 62
     0
100
AcDbLine
 10
-5.0
 20
0.0
 30
0.0
 11
-14.5
 21
0.0
 31
0.0
  0
LINE
  5
E8
330
DF
100
AcDbEntity
  8
FORMAT
 62
     0
100
AcDbLine
 10
0.0
 20
-5.0
 30
0.0
 11
0.0
 21
-14.5
 31
0.0
  0
LINE
  5
E9
330
DF
100
AcDbEntity
  8
FORMAT
 62
     0
100
AcDbLine
 10
5.0
 20
0.0
 30
0.0
 11
14.5
 21
0.0
 31
0.0
  0
ENDBLK
  5
E1
330
DF
100
AcDbEntity
  8
0
100
AcDbBlockEnd
  0
BLOCK
  5
EC
330
EB
100
AcDbEntity
  8
0
100
AcDbBlockBegin
  2
SW_CENTERMARKSYMBOL_7
 70
     0
 10
0.0
 20
0.0
 30
0.0
  3
SW_CENTERMARKSYMBOL_7
  1

  0
LINE
  5
EE
330
EB
100
AcDbEntity
  8
FORMAT
 62
     0
100
AcDbLine
 10
0.0
 20
0.0
 30
0.0
 11
0.0
 21
2.5
 31
0.0
  0
LINE
  5
EF
330
EB
100
AcDbEntity
  8
FORMAT
 62
     0
100
AcDbLine
 10
0.0
 20
0.0
 30
0.0
 11
-2.5
 21
0.0
 31
0.0
  0
LINE
  5
F0
330
EB
100
AcDbEntity
  8
FORMAT
 62
     0
100
AcDbLine
 10
0.0
 20
0.0
 30
0.0
 11
0.0
 21
-2.5
 31
0.0
  0
LINE
  5
F1
330
EB
100
AcDbEntity
  8
FORMAT
 62
     0
100
AcDbLine
 10
0.0
 20
0.0
 30
0.0
 11
2.5
 21
0.0
 31
0.0
  0
LINE
  5
F2
330
EB
100
AcDbEntity
  8
FORMAT
 62
     0
100
AcDbLine
 10
0.0
 20
5.0
 30
0.0
 11
0.0
 21
14.5
 31
0.0
  0
LINE
  5
F3
330
EB
100
AcDbEntity
  8
FORMAT
 62
     0
100
AcDbLine
 10
-5.0
 20
0.0
 30
0.0
 11
-14.5
 21
0.0
 31
0.0
  0
LINE
  5
F4
330
EB
100
AcDbEntity
  8
FORMAT
 62
     0
100
AcDbLine
 10
0.0
 20
-5.0
 30
0.0
 11
0.0
 21
-14.5
 31
0.0
  0
LINE
  5
F5
330
EB
100
AcDbEntity
  8
FORMAT
 62
     0
100
AcDbLine
 10
5.0
 20
0.0
 30
0.0
 11
14.5
 21
0.0
 31
0.0
  0
ENDBLK
  5
ED
330
EB
100
AcDbEntity
  8
0
100
AcDbBlockEnd
  0
ENDSEC
  0
SECTION
  2
ENTITIES
  0
CIRCLE
  5
83
330
1F
100
AcDbEntity
  8
0
  6
Continuous
 62
     7
370
    25
100
AcDbCircle
 10
15.1105938204
 20
115.6909958732
 30
0.0
 40
12.0
  0
CIRCLE
  5
84
330
1F
100
AcDbEntity
  8
0
  6
Continuous
 62
     7
370
    25
100
AcDbCircle
 10
219.9634075628
 20
30.8381821308
 30
0.0
 40
11.99999999999997
  0
CIRCLE
  5
85
330
1F
100
AcDbEntity
  8
0
  6
Continuous
 62
     7
370
    25
100
AcDbCircle
 10
219.9634075628
 20
200.5438096156
 30
0.0
 40
11.99999999999997
  0
CIRCLE
  5
86
330
1F
100
AcDbEntity
  8
0
  6
Continuous
 62
     7
370
    25
100
AcDbCircle
 10
135.1105938204
 20
235.6909958732
 30
0.0
 40
11.99999999999997
  0
CIRCLE
  5
87
330
1F
100
AcDbEntity
  8
0
  6
Continuous
 62
     7
370
    25
100
AcDbCircle
 10
135.1105938204
 20
115.6909958732
 30
0.0
 40
141.5
  0
CIRCLE
  5
88
330
1F
100
AcDbEntity
  8
0
  6
Continuous
 62
     7
370
    25
100
AcDbCircle
 10
135.1105938204
 20
115.6909958732
 30
0.0
 40
95.0
  0
CIRCLE
  5
89
330
1F
100
AcDbEntity
  8
0
  6
Continuous
 62
     7
370
    25
100
AcDbCircle
 10
135.1105938204
 20
-4.3090041268
 30
0.0
 40
12.00000000000003
  0
CIRCLE
  5
8A
330
1F
100
AcDbEntity
  8
0
  6
Continuous
 62
     7
370
    25
100
AcDbCircle
 10
255.1105938204
 20
115.6909958732
 30
0.0
 40
12.0
  0
CIRCLE
  5
8B
330
1F
100
AcDbEntity
  8
0
  6
Continuous
 62
     7
370
    25
100
AcDbCircle
 10
50.257780078
 20
30.8381821308
 30
0.0
 40
12.0
  0
CIRCLE
  5
8C
330
1F
100
AcDbEntity
  8
0
  6
Continuous
 62
     7
370
    25
100
AcDbCircle
 10
50.257780078
 20
200.5438096156
 30
0.0
 40
12.0
  0
CIRCLE
  5
8D
330
1F
100
AcDbEntity
  8
0
  6
Continuous
 62
     7
370
    25
100
AcDbCircle
 10
135.1105938204
 20
-4.3090041268
 30
0.0
 40
11.00000000000003
  0
CIRCLE
  5
8E
330
1F
100
AcDbEntity
  8
0
  6
Continuous
 62
     7
370
    25
100
AcDbCircle
 10
135.1105938204
 20
115.6909958732
 30
0.0
 40
94.0
  0
CIRCLE
  5
8F
330
1F
100
AcDbEntity
  8
0
  6
Continuous
 62
     7
370
    25
100
AcDbCircle
 10
135.1105938204
 20
115.6909958732
 30
0.0
 40
142.5
  0
CIRCLE
  5
90
330
1F
100
AcDbEntity
  8
0
  6
Continuous
 62
     7
370
    25
100
AcDbCircle
 10
135.1105938204
 20
235.6909958732
 30
0.0
 40
11.0
  0
CIRCLE
  5
91
330
1F
100
AcDbEntity
  8
0
  6
Continuous
 62
     7
370
    25
100
AcDbCircle
 10
219.9634075628
 20
200.5438096156
 30
0.0
 40
10.99999999999997
  0
CIRCLE
  5
92
330
1F
100
AcDbEntity
  8
0
  6
Continuous
 62
     7
370
    25
100
AcDbCircle
 10
50.257780078
 20
200.5438096156
 30
0.0
 40
11.0
  0
CIRCLE
  5
93
330
1F
100
AcDbEntity
  8
0
  6
Continuous
 62
     7
370
    25
100
AcDbCircle
 10
50.257780078
 20
30.8381821308
 30
0.0
 40
11.0
  0
CIRCLE
  5
94
330
1F
100
AcDbEntity
  8
0
  6
Continuous
 62
     7
370
    25
100
AcDbCircle
 10
255.1105938204
 20
115.6909958732
 30
0.0
 40
11.0
  0
CIRCLE
  5
95
330
1F
100
AcDbEntity
  8
0
  6
Continuous
 62
     7
370
    25
100
AcDbCircle
 10
15.1105938204
 20
115.6909958732
 30
0.0
 40
10.99999999999999
  0
CIRCLE
  5
96
330
1F
100
AcDbEntity
  8
0
  6
Continuous
 62
     7
370
    25
100
AcDbCircle
 10
219.9634075628
 20
30.8381821308
 30
0.0
 40
10.99999999999997
  0
INSERT
  5
A2
330
1F
100
AcDbEntity
  8
FORMAT
 62
     7
100
AcDbBlockReference
  2
SW_CENTERMARKSYMBOL_0
 10
135.1105938204
 20
115.6909958732
 30
0.0
  0
INSERT
  5
AE
330
1F
100
AcDbEntity
  8
FORMAT
 62
     7
100
AcDbBlockReference
  2
SW_CENTERMARKSYMBOL_1
 10
135.1105938204
 20
235.6909958732
 30
0.0
  0
INSERT
  5
BA
330
1F
100
AcDbEntity
  8
FORMAT
 62
     7
100
AcDbBlockReference
  2
SW_CENTERMARKSYMBOL_2
 10
219.9634075628
 20
200.5438096156
 30
0.0
  0
INSERT
  5
C6
330
1F
100
AcDbEntity
  8
FORMAT
 62
     7
100
AcDbBlockReference
  2
SW_CENTERMARKSYMBOL_3
 10
255.1105938204
 20
115.6909958732
 30
0.0
  0
INSERT
  5
D2
330
1F
100
AcDbEntity
  8
FORMAT
 62
     7
100
AcDbBlockReference
  2
SW_CENTERMARKSYMBOL_4
 10
219.9634075628
 20
30.8381821308
 30
0.0
  0
INSERT
  5
DE
330
1F
100
AcDbEntity
  8
FORMAT
 62
     7
100
AcDbBlockReference
  2
SW_CENTERMARKSYMBOL_5
 10
50.257780078
 20
200.5438096156
 30
0.0
  0
INSERT
  5
EA
330
1F
100
AcDbEntity
  8
FORMAT
 62
     7
100
AcDbBlockReference
  2
SW_CENTERMARKSYMBOL_6
 10
15.1105938204
 20
115.6909958732
 30
0.0
  0
INSERT
  5
F6
330
1F
100
AcDbEntity
  8
FORMAT
 62
     7
100
AcDbBlockReference
  2
SW_CENTERMARKSYMBOL_7
 10
50.257780078
 20
30.8381821308
 30
0.0
  0
LINE
  5
F7
330
1F
100
AcDbEntity
  8
0
  6
Continuous
 62
     7
370
    25
100
AcDbLine
 10
-133.0861256951
 20
258.1909958732
 30
0.0
 11
-155.0861256951
 21
258.1909958732
 31
0.0
  0
LINE
  5
F8
330
1F
100
AcDbEntity
  8
0
  6
Continuous
 62
     7
370
    25
100
AcDbLine
 10
-155.0861256951
 20
-26.8090041268
 30
0.0
 11
-133.0861256951
 21
-26.8090041268
 31
0.0
  0
ARC
  5
F9
330
1F
100
AcDbEntity
  8
0
  6
Continuous
 62
     7
370
    25
100
AcDbCircle
 10
-133.0861256951
 20
-25.8090041268
 30
0.0
 40
1.0
100
AcDbArc
 50
270.0
 51
0.0
  0
ARC
  5
FA
330
1F
100
AcDbEntity
  8
0
  6
Continuous
 62
     7
370
    25
100
AcDbCircle
 10
-133.0861256951
 20
257.1909958732
 30
0.0
 40
1.0
100
AcDbArc
 50
0.0
 51
90.0
  0
ARC
  5
FB
330
1F
100
AcDbEntity
  8
0
  6
Continuous
 62
     7
370
    25
100
AcDbCircle
 10
-155.0861256951
 20
-25.8090041268
 30
0.0
 40
1.0
100
AcDbArc
 50
180.0
 51
270.0
  0
ARC
  5
FC
330
1F
100
AcDbEntity
  8
0
  6
Continuous
 62
     7
370
    25
100
AcDbCircle
 10
-155.0861256951
 20
257.1909958732
 30
0.0
 40
1.0
100
AcDbArc
 50
90.0
 51
180.0
  0
LINE
  5
FD
330
1F
100
AcDbEntity
  8
0
  6
Continuous
 62
     7
370
    25
100
AcDbLine
 10
-132.0861256951
 20
115.6909958732
 30
0.0
 11
-132.0861256951
 21
-25.8090041268
 31
0.0
  0
LINE
  5
FE
330
1F
100
AcDbEntity
  8
0
  6
Continuous
 62
     7
370
    25
100
AcDbLine
 10
-132.0861256951
 20
257.1909958732
 30
0.0
 11
-132.0861256951
 21
115.6909958732
 31
0.0
  0
LINE
  5
FF
330
1F
100
AcDbEntity
  8
0
  6
Continuous
 62
     7
370
    25
100
AcDbLine
 10
-156.0861256951
 20
115.6909958732
 30
0.0
 11
-156.0861256951
 21
257.1909958732
 31
0.0
  0
LINE
  5
100
330
1F
100
AcDbEntity
  8
0
  6
Continuous
 62
     7
370
    25
100
AcDbLine
 10
-156.0861256951
 20
-25.8090041268
 30
0.0
 11
-156.0861256951
 21
115.6909958732
 31
0.0
  0
LINE
  5
101
330
1F
100
AcDbEntity
  8
0
  6
Continuous
 62
     1
370
    25
100
AcDbLine
 10
-155.0861256951
 20
115.6909958732
 30
0.0
 11
-155.0861256951
 21
-26.8090041268
 31
0.0
  0
LINE
  5
102
330
1F
100
AcDbEntity
  8
0
  6
Continuous
 62
     1
370
    25
100
AcDbLine
 10
-155.0861256951
 20
258.1909958732
 30
0.0
 11
-155.0861256951
 21
115.6909958732
 31
0.0
  0
LINE
  5
103
330
1F
100
AcDbEntity
  8
0
  6
Continuous
 62
     1
370
    25
100
AcDbLine
 10
-133.0861256951
 20
115.6909958732
 30
0.0
 11
-133.0861256951
 21
258.1909958732
 31
0.0
  0
LINE
  5
104
330
1F
100
AcDbEntity
  8
0
  6
Continuous
 62
     1
370
    25
100
AcDbLine
 10
-133.0861256951
 20
-26.8090041268
 30
0.0
 11
-133.0861256951
 21
115.6909958732
 31
0.0
  0
LINE
  5
105
330
1F
100
AcDbEntity
  8
0
  6
Continuous
 62
     7
370
    25
100
AcDbLine
 10
418.375669265
 20
-26.8090041268
 30
0.0
 11
440.375669265
 21
-26.8090041268
 31
0.0
  0
LINE
  5
106
330
1F
100
AcDbEntity
  8
0
  6
Continuous
 62
     7
370
    25
100
AcDbLine
 10
440.375669265
 20
258.1909958732
 30
0.0
 11
418.375669265
 21
258.1909958732
 31
0.0
  0
ARC
  5
107
330
1F
100
AcDbEntity
  8
0
  6
Continuous
 62
     7
370
    25
100
AcDbCircle
 10
418.375669265
 20
257.1909958732
 30
0.0
 40
1.0
100
AcDbArc
 50
90.0
 51
180.0
  0
ARC
  5
108
330
1F
100
AcDbEntity
  8
0
  6
Continuous
 62
     7
370
    25
100
AcDbCircle
 10
418.375669265
 20
-25.8090041268
 30
0.0
 40
1.0
100
AcDbArc
 50
180.0
 51
270.0
  0
ARC
  5
109
330
1F
100
AcDbEntity
  8
0
  6
Continuous
 62
     7
370
    25
100
AcDbCircle
 10
440.375669265
 20
257.1909958732
 30
0.0
 40
1.0
100
AcDbArc
 50
0.0
 51
90.0
  0
ARC
  5
10A
330
1F
100
AcDbEntity
  8
0
  6
Continuous
 62
     7
370
    25
100
AcDbCircle
 10
440.375669265
 20
-25.8090041268
 30
0.0
 40
1.0
100
AcDbArc
 50
270.0
 51
0.0
  0
LINE
  5
10B
330
1F
100
AcDbEntity
  8
0
  6
Continuous
 62
     7
370
    25
100
AcDbLine
 10
417.375669265
 20
-25.8090041268
 30
0.0
 11
417.375669265
 21
257.1909958732
 31
0.0
  0
LINE
  5
10C
330
1F
100
AcDbEntity
  8
0
  6
Continuous
 62
     7
370
    25
100
AcDbLine
 10
441.375669265
 20
257.1909958732
 30
0.0
 11
441.375669265
 21
-25.8090041268
 31
0.0
  0
LINE
  5
10D
330
1F
100
AcDbEntity
  8
0
  6
Continuous
 62
     1
370
    25
100
AcDbLine
 10
440.375669265
 20
-26.8090041268
 30
0.0
 11
440.375669265
 21
258.1909958732
 31
0.0
  0
LINE
  5
10E
330
1F
100
AcDbEntity
  8
0
  6
Continuous
 62
     1
370
    25
100
AcDbLine
 10
418.375669265
 20
258.1909958732
 30
0.0
 11
418.375669265
 21
-26.8090041268
 31
0.0
  0
LINE
  5
10F
330
1F
100
AcDbEntity
  8
0
  6
Continuous
 62
     7
370
    25
100
AcDbLine
 10
277.6105938204
 20
341.2108069975
 30
0.0
 11
277.6105938204
 21
363.2108069975
 31
0.0
  0
LINE
  5
110
330
1F
100
AcDbEntity
  8
0
  6
Continuous
 62
     7
370
    25
100
AcDbLine
 10
-7.3894061796
 20
363.2108069975
 30
0.0
 11
-7.3894061796
 21
341.2108069975
 31
0.0
  0
ARC
  5
111
330
1F
100
AcDbEntity
  8
0
  6
Continuous
 62
     7
370
    25
100
AcDbCircle
 10
-6.3894061796
 20
341.2108069975
 30
0.0
 40
1.000000000000001
100
AcDbArc
 50
180.0
 51
270.0
  0
ARC
  5
112
330
1F
100
AcDbEntity
  8
0
  6
Continuous
 62
     7
370
    25
100
AcDbCircle
 10
276.6105938204
 20
341.2108069975
 30
0.0
 40
1.0
100
AcDbArc
 50
270.0
 51
0.0
  0
ARC
  5
113
330
1F
100
AcDbEntity
  8
0
  6
Continuous
 62
     7
370
    25
100
AcDbCircle
 10
-6.3894061796
 20
363.2108069975
 30
0.0
 40
1.000000000000001
100
AcDbArc
 50
90.0
 51
180.0
  0
ARC
  5
114
330
1F
100
AcDbEntity
  8
0
  6
Continuous
 62
     7
370
    25
100
AcDbCircle
 10
276.6105938204
 20
363.2108069975
 30
0.0
 40
1.0
100
AcDbArc
 50
0.0
 51
90.0
  0
LINE
  5
115
330
1F
100
AcDbEntity
  8
0
  6
Continuous
 62
     7
370
    25
100
AcDbLine
 10
276.6105938204
 20
340.2108069975
 30
0.0
 11
-6.3894061796
 21
340.2108069975
 31
0.0
  0
LINE
  5
116
330
1F
100
AcDbEntity
  8
0
  6
Continuous
 62
     7
370
    25
100
AcDbLine
 10
-6.3894061791
 20
364.2108069975
 30
0.0
 11
276.6105938204
 21
364.2108069975
 31
0.0
  0
LINE
  5
117
330
1F
100
AcDbEntity
  8
0
  6
Continuous
 62
     1
370
    25
100
AcDbLine
 10
277.6105938204
 20
363.2108069975
 30
0.0
 11
-7.3894061796
 21
363.2108069975
 31
0.0
  0
LINE
  5
118
330
1F
100
AcDbEntity
  8
0
  6
Continuous
 62
     1
370
    25
100
AcDbLine
 10
-7.3894061796
 20
341.2108069975
 30
0.0
 11
277.6105938204
 21
341.2108069975
 31
0.0
  0
LINE
  5
119
330
1F
100
AcDbEntity
  8
0
  6
Continuous
 62
     7
370
    25
100
AcDbLine
 10
-7.3894061796
 20
-194.488243017
 30
0.0
 11
-7.3894061796
 21
-216.488243017
 31
0.0
  0
LINE
  5
11A
330
1F
100
AcDbEntity
  8
0
  6
Continuous
 62
     7
370
    25
100
AcDbLine
 10
277.6105938204
 20
-216.488243017
 30
0.0
 11
277.6105938204
 21
-194.488243017
 31
0.0
  0
ARC
  5
11B
330
1F
100
AcDbEntity
  8
0
  6
Continuous
 62
     7
370
    25
100
AcDbCircle
 10
276.6105938204
 20
-194.488243017
 30
0.0
 40
1.0
100
AcDbArc
 50
0.0
 51
90.0
  0
ARC
  5
11C
330
1F
100
AcDbEntity
  8
0
  6
Continuous
 62
     7
370
    25
100
AcDbCircle
 10
-6.3894061796
 20
-194.488243017
 30
0.0
 40
1.000000000000001
100
AcDbArc
 50
90.0
 51
180.0
  0
ARC
  5
11D
330
1F
100
AcDbEntity
  8
0
  6
Continuous
 62
     7
370
    25
100
AcDbCircle
 10
276.6105938204
 20
-216.488243017
 30
0.0
 40
1.0
100
AcDbArc
 50
270.0
 51
0.0
  0
ARC
  5
11E
330
1F
100
AcDbEntity
  8
0
  6
Continuous
 62
     7
370
    25
100
AcDbCircle
 10
-6.3894061796
 20
-216.488243017
 30
0.0
 40
1.000000000000001
100
AcDbArc
 50
180.0
 51
270.0
  0
LINE
  5
11F
330
1F
100
AcDbEntity
  8
0
  6
Continuous
 62
     7
370
    25
100
AcDbLine
 10
-6.3894061791
 20
-193.488243017
 30
0.0
 11
276.6105938204
 21
-193.488243017
 31
0.0
  0
LINE
  5
120
330
1F
100
AcDbEntity
  8
0
  6
Continuous
 62
     7
370
    25
100
AcDbLine
 10
276.6105938204
 20
-217.488243017
 30
0.0
 11
-6.3894061796
 21
-217.488243017
 31
0.0
  0
LINE
  5
121
330
1F
100
AcDbEntity
  8
0
  6
Continuous
 62
     1
370
    25
100
AcDbLine
 10
-7.3894061796
 20
-216.488243017
 30
0.0
 11
277.6105938204
 21
-216.488243017
 31
0.0
  0
LINE
  5
122
330
1F
100
AcDbEntity
  8
0
  6
Continuous
 62
     1
370
    25
100
AcDbLine
 10
277.6105938204
 20
-194.488243017
 30
0.0
 11
-7.3894061796
 21
-194.488243017
 31
0.0
  0
SPLINE
  5
123
330
1F
100
AcDbEntity
  8
0
  6
Continuous
 62
     7
370
    25
100
AcDbSpline
210
0.0
220
0.0
230
1.0
 70
     8
 71
     3
 72
    73
 73
    69
 74
     0
 42
0.00000001
 43
0.00000001
 40
0.0
 40
0.0
 40
0.0
 40
0.0
 40
0.0125691386918439
 40
0.0278089037815766
 40
0.043061101441683
 40
0.0583255467041286
 40
0.0736014525456918
 40
0.0888876140075781
 40
0.1041825877251954
 40
0.1194848456694248
 40
0.134792892730597
 40
0.150105346629328
 40
0.1654209843961277
 40
0.1807387624345919
 40
0.1960578177231656
 40
0.2113774569125991
 40
0.2266970216393529
 40
0.2420161082968978
 40
0.257334450686473
 40
0.2726518677432838
 40
0.2879682469252288
 40
0.3032835300305981
 40
0.3185977013751543
 40
0.333910778123106
 40
0.3492228025046942
 40
0.3645338356390913
 40
0.3798439526943659
 40
0.3951532391428585
 40
0.4104617879021201
 40
0.4257696971835695
 40
0.4410770689006938
 40
0.4563840075144569
 40
0.4716906192155292
 40
0.4869970113606588
 40
0.5023032920945573
 40
0.5176095700991558
 40
0.532915931270214
 40
0.5482224717177454
 40
0.563529300850481
 40
0.5788365280026687
 40
0.5941442621466708
 40
0.6094526114618645
 40
0.6247616826959886
 40
0.6400715802450737
 40
0.6553824048625152
 40
0.6706942518882614
 40
0.6860072088652015
 40
0.701321352381765
 40
0.716636743947908
 40
0.7319534246777284
 40
0.7472714085188994
 40
0.762590673742848
 40
0.7779111523995883
 40
0.7932327174627632
 40
0.8085551674670458
 40
0.8238782086046376
 40
0.8392013518435955
 40
0.8545239277924281
 40
0.8698451844534064
 40
0.8851641895916083
 40
0.9004798210155208
 40
0.9157907707098286
 40
0.9310955700917474
 40
0.9463926443040926
 40
0.9616804024831114
 40
0.9769573674048374
 40
0.9922223411091776
 40
1.0
 40
1.0
 40
1.0
 40
1.0
 10
482.6467548658064
 20
-49.80476141666942
 30
0.0
 10
481.669567238587
 20
-49.6345288842788
 30
0.0
 10
479.5075641476732
 20
-49.25789368040318
 30
0.0
 10
476.0511221531513
 20
-48.94764123060369
 30
0.0
 10
472.3058823422363
 20
-48.8215306228395
 30
0.0
 10
468.4790600099826
 20
-48.92984009280107
 30
0.0
 10
464.580812377802
 20
-49.2643059176196
 30
0.0
 10
460.6171582809295
 20
-49.82667375763194
 30
0.0
 10
456.5954312125171
 20
-50.61543310467898
 30
0.0
 10
452.5227701396038
 20
-51.62937434958717
 30
0.0
 10
448.4064814980887
 20
-52.8666435178809
 30
0.0
 10
444.2539055793338
 20
-54.3250113680416
 30
0.0
 10
440.0724228701876
 20
-56.00182029820608
 30
0.0
 10
435.8694293360063
 20
-57.89401858744572
 30
0.0
 10
431.6523252183595
 20
-59.99817052182937
 30
0.0
 10
427.4285146517516
 20
-62.3104655610745
 30
0.0
 10
423.2053854871293
 20
-64.82673417747125
 30
0.0
 10
418.9902982890429
 20
-67.54246089894534
 30
0.0
 10
414.7905680587181
 20
-70.45280305480043
 30
0.0
 10
410.6134678665687
 20
-73.55259414179497
 30
0.0
 10
406.4662230795299
 20
-76.83635088396038
 30
0.0
 10
402.3560019791387
 20
-80.29828216627551
 30
0.0
 10
398.2899058766596
 20
-83.9322981997831
 30
0.0
 10
394.2749587965312
 20
-87.73202005597695
 30
0.0
 10
390.3180968180808
 20
-91.69078966210965
 30
0.0
 10
386.4261571708217
 20
-95.8016803130599
 30
0.0
 10
382.605867176457
 20
-100.0575077274773
 30
0.0
 10
378.8638331242727
 20
-104.4508416552696
 30
0.0
 10
375.2065291583516
 20
-108.9740180285688
 30
0.0
 10
371.6402862463354
 20
-113.6191516378194
 30
0.0
 10
368.17128129118
 20
-118.3781493073873
 30
0.0
 10
364.8055264398474
 20
-123.2427235402221
 30
0.0
 10
361.5488586363672
 20
-128.2044065978045
 30
0.0
 10
358.406929461077
 20
-133.2545649795375
 30
0.0
 10
355.385195293396
 20
-138.3844142638094
 30
0.0
 10
352.4889092909206
 20
-143.5850316514826
 30
0.0
 10
349.7231113330567
 20
-148.8473723857024
 30
0.0
 10
347.0926183349193
 20
-154.16228695813
 30
0.0
 10
344.6020148138305
 20
-159.5205398302136
 30
0.0
 10
342.2556459487047
 20
-164.9128244627786
 30
0.0
 10
340.0576110805555
 20
-170.3297779821375
 30
0.0
 10
338.0117569195802
 20
-175.7619974253192
 30
0.0
 10
336.1216712686641
 20
-181.2000560040836
 30
0.0
 10
334.3906772765156
 20
-186.6345193331776
 30
0.0
 10
332.8218282292744
 20
-192.0559615643049
 30
0.0
 10
331.4179028839271
 20
-197.4549813622066
 30
0.0
 10
330.1814013394282
 20
-202.8222176536338
 30
0.0
 10
329.1145414314645
 20
-208.1483650740013
 30
0.0
 10
328.2192556234871
 20
-213.4241890306818
 30
0.0
 10
327.4971883491069
 20
-218.6405402969854
 30
0.0
 10
326.9496937381116
 20
-223.7883690484532
 30
0.0
 10
326.5778336298176
 20
-228.8587382546432
 30
0.0
 10
326.3823757408316
 20
-233.8428363506334
 30
0.0
 10
326.3637918169698
 20
-238.7319891285468
 30
0.0
 10
326.5222555363439
 20
-243.5176708496232
 30
0.0
 10
326.8576393433287
 20
-248.1915061564129
 30
0.0
 10
327.3695086754611
 20
-252.7452765949749
 30
0.0
 10
328.0571162688644
 20
-257.1709387462683
 30
0.0
 10
328.9193955050554
 20
-261.4606441119853
 30
0.0
 10
329.954960609528
 20
-265.6067457081394
 30
0.0
 10
331.162075042078
 20
-269.6018322768262
 30
0.0
 10
332.538723641259
 20
-273.4386383955327
 30
0.0
 10
334.0822994455289
 20
-277.110463236809
 30
0.0
 10
335.7907323716489
 20
-280.6097130557277
 30
0.0
 10
337.658255024835
 20
-283.9334643364596
 30
0.0
 10
339.6911908906457
 20
-287.0628720252465
 30
0.0
 10
341.4969127522997
 20
-289.5541546957706
 30
0.0
 10
342.6812234079587
 20
-290.9255440702034
 30
0.0
 10
343.0809678495905
 20
-291.3884338340699
 30
0.0
  0
LINE
  5
124
330
1F
100
AcDbEntity
  8
0
  6
Continuous
 62
     7
370
    25
100
AcDbLine
 10
514.2356514914
 20
-64.6030553404
 30
0.0
 11
498.6793023053
 21
-55.6225661103
 31
0.0
  0
LINE
  5
125
330
1F
100
AcDbEntity
  8
0
  6
Continuous
 62
     7
370
    25
100
AcDbLine
 10
356.1908829047
 20
-302.4464918888
 30
0.0
 11
371.7472320908
 21
-311.4269811189
 31
0.0
  0
SPLINE
  5
126
330
1F
100
AcDbEntity
  8
0
  6
Continuous
 62
     7
370
    25
100
AcDbSpline
210
0.0
220
0.0
230
1.0
 70
     8
 71
     3
 72
    59
 73
    55
 74
     0
 42
0.00000001
 43
0.00000001
 40
0.0
 40
0.0
 40
0.0
 40
0.0
 40
0.0136482271190088
 40
0.0330017883799598
 40
0.0523711026856117
 40
0.0717560516255647
 40
0.0911557229777667
 40
0.1105686425972045
 40
0.1299930050372982
 40
0.1494268741454394
 40
0.1688683387476826
 40
0.18831562023317
 40
0.2077671366963075
 40
0.2272215322697821
 40
0.2466776812742444
 40
0.2661346759599842
 40
0.2855916782814468
 40
0.3050481270836308
 40
0.3245036683517616
 40
0.3439580591910621
 40
0.3634111463307961
 40
0.3828628477066887
 40
0.4023131370637538
 40
0.4217620313351298
 40
0.4412095804636283
 40
0.4606558593086781
 40
0.4801009612944615
 40
0.4995449934873862
 40
0.5189880728308938
 40
0.5384303233066042
 40
0.5578718738287785
 40
0.5773128567128357
 40
0.596753406586954
 40
0.6161936596391563
 40
0.6356337531105923
 40
0.6550738249596698
 40
0.674513990288408
 40
0.6939543650716887
 40
0.7133950882583397
 40
0.7328362987410113
 40
0.7522781350093467
 40
0.771720734630951
 40
0.7911642334798457
 40
0.8106087646208453
 40
0.8300544567391613
 40
0.8495014319802859
 40
0.8689498030356758
 40
0.8883996692747314
 40
0.9078511116837105
 40
0.9273041863292374
 40
0.9467589160217043
 40
0.9662152798187427
 40
0.9856731999925389
 40
0.9999999999999999
 40
0.9999999999999999
 40
0.9999999999999999
 40
0.9999999999999999
 10
387.7416291694411
 20
-317.230038516363
 30
0.0
 10
388.5745098214381
 20
-317.3817506533753
 30
0.0
 10
390.5884381348588
 20
-317.74859477142
 30
0.0
 10
393.8899954060755
 20
-318.0680292579052
 30
0.0
 10
397.6238167701574
 20
-318.2254134247017
 30
0.0
 10
401.4408126839912
 20
-318.1466744499787
 30
0.0
 10
405.3299373183327
 20
-317.8422159537279
 30
0.0
 10
409.2854405308639
 20
-317.3096439850661
 30
0.0
 10
413.2999409271142
 20
-316.5505676300801
 30
0.0
 10
417.3663305949137
 20
-315.5660951968664
 30
0.0
 10
421.4773076762307
 20
-314.3580345916033
 30
0.0
 10
425.6255391627128
 20
-312.928556484753
 30
0.0
 10
429.8036476439795
 20
-311.2802658624362
 30
0.0
 10
434.0042386639204
 20
-309.4161628468236
 30
0.0
 10
438.2199118118502
 20
-307.3396337387791
 30
0.0
 10
442.4432631307831
 20
-305.0544403806571
 30
0.0
 10
446.666901770986
 20
-302.5647060231877
 30
0.0
 10
450.8834631510218
 20
-299.8749013343717
 30
0.0
 10
455.0856256760558
 20
-296.9898267838042
 30
0.0
 10
459.2661106798983
 20
-293.9146066200032
 30
0.0
 10
463.4176860079301
 20
-290.6546830293418
 30
0.0
 10
467.533175329044
 20
-287.2158072199924
 30
0.0
 10
471.6054679579964
 20
-283.6040302961671
 30
0.0
 10
475.6275291201584
 20
-279.8256937783206
 30
0.0
 10
479.5924105703446
 20
-275.8874196722338
 30
0.0
 10
483.4932614705695
 20
-271.7961000270794
 30
0.0
 10
487.3233394330258
 20
-267.5588859515287
 30
0.0
 10
491.0760216406017
 20
-263.183176078488
 30
0.0
 10
494.7448159653836
 20
-258.6766044846363
 30
0.0
 10
498.3233720142764
 20
-254.0470280819634
 30
0.0
 10
501.8054920392557
 20
-249.3025135060988
 30
0.0
 10
505.1851416573688
 20
-244.4513235313776
 30
0.0
 10
508.4564603322622
 20
-239.5019030460374
 30
0.0
 10
511.6137715747274
 20
-234.4628646231795
 30
0.0
 10
514.6515928244021
 20
-229.3429737249887
 30
0.0
 10
517.5646438133157
 20
-224.1511356559559
 30
0.0
 10
520.3478560243051
 20
-218.8963802385609
 30
0.0
 10
522.9963827816284
 20
-213.5878441346831
 30
0.0
 10
525.5056085176359
 20
-208.2347527088354
 30
0.0
 10
527.8711563025458
 20
-202.8464038995697
 30
0.0
 10
530.0888941173877
 20
-197.432154107604
 30
0.0
 10
532.1549417021881
 20
-192.0014019634995
 30
0.0
 10
534.0656769434465
 20
-186.5635720387293
 30
0.0
 10
535.8177415332121
 20
-181.1280987002728
 30
0.0
 10
537.40804683799
 20
-175.7044096219334
 30
0.0
 10
538.8337764362484
 20
-170.3019110483018
 30
0.0
 10
540.0923985293263
 20
-164.929967291781
 30
0.0
 10
541.1816389633215
 20
-159.5979028590184
 30
0.0
 10
542.0995988050059
 20
-154.3149215761997
 30
0.0
 10
542.8443300421296
 20
-149.0903373640268
 30
0.0
 10
543.4154317377311
 20
-143.9326440302651
 30
0.0
 10
543.8081030270637
 20
-138.8529211240095
 30
0.0
 10
544.0153689631613
 20
-134.2917615810564
 30
0.0
 10
544.0376168542984
 20
-131.4564787030614
 30
0.0
 10
544.0470513289722
 20
-130.2541443181773
 30
0.0
  0
SPLINE
  5
127
330
1F
100
AcDbEntity
  8
0
  6
Continuous
 62
     7
370
    25
100
AcDbSpline
210
0.0
220
0.0
230
1.0
 70
     8
 71
     3
 72
    22
 73
    18
 74
     0
 42
0.00000001
 43
0.00000001
 40
0.0
 40
0.0
 40
0.0
 40
0.0
 40
0.0376355523861987
 40
0.1091169451863675
 40
0.1806055493708017
 40
0.252094221655612
 40
0.3235798318655324
 40
0.3950587653352097
 40
0.4665265579265417
 40
0.5379778574502425
 40
0.6094064538360784
 40
0.6808054126513348
 40
0.7521673488100403
 40
0.823484871450354
 40
0.8947512126016033
 40
0.9659610184363615
 40
1.0
 40
1.0
 40
1.0
 40
1.0
 10
544.0470513289722
 20
-130.2541443181773
 30
0.0
 10
544.0421159714481
 20
-129.4009605930829
 30
0.0
 10
544.0278068647051
 20
-126.9273207535581
 30
0.0
 10
543.8688203506558
 20
-122.9122929323196
 30
0.0
 10
543.5121321224325
 20
-118.2528168286179
 30
0.0
 10
542.9766285483707
 20
-113.7156936953103
 30
0.0
 10
542.2661521322987
 20
-109.3073669113065
 30
0.0
 10
541.3809954115832
 20
-105.0361070400423
 30
0.0
 10
540.3228058991136
 20
-100.9094137415513
 30
0.0
 10
539.0933067667901
 20
-96.93470033152073
 30
0.0
 10
537.6945719245746
 20
-93.1191958629774
 30
0.0
 10
536.1292608289276
 20
-89.46955407552278
 30
0.0
 10
534.3994548880405
 20
-85.99338408090503
 30
0.0
 10
532.5111063702674
 20
-82.69336323832455
 30
0.0
 10
530.45742214544
 20
-79.58904675289537
 30
0.0
 10
528.658897635909
 20
-77.14850112640254
 30
0.0
 10
527.4902384931372
 20
-75.81802738692491
 30
0.0
 10
527.1122772073278
 20
-75.38773291790119
 30
0.0
  0
SPLINE
  5
128
330
1F
100
AcDbEntity
  8
0
  6
Continuous
 62
     7
370
    25
100
AcDbSpline
210
0.0
220
0.0
230
1.0
 70
     8
 71
     3
 72
    14
 73
    10
 74
     0
 42
0.00000001
 43
0.00000001
 40
0.0
 40
0.0
 40
0.0
 40
0.0
 40
0.053263423059235
 40
0.2528808595227472
 40
0.4308897066514741
 40
0.6201064939466323
 40
0.8032280585694105
 40
0.9731718040508207
 40
1.0
 40
1.0
 40
1.0
 40
1.0
 10
492.7821309719939
 20
-204.0992062861511
 30
0.0
 10
492.8532980968333
 20
-204.1280860967539
 30
0.0
 10
493.1911810691523
 20
-204.2651999153672
 30
0.0
 10
493.6535107004609
 20
-204.6926522699079
 30
0.0
 10
494.1920939484614
 20
-205.4063039726
 30
0.0
 10
494.5913146776377
 20
-206.3137515616244
 30
0.0
 10
494.84437983855
 20
-207.3909903628968
 30
0.0
 10
494.9171556564712
 20
-208.2501883806065
 30
0.0
 10
494.9199878354664
 20
-208.7204824011515
 30
0.0
 10
494.9203739792046
 20
-208.7846030275231
 30
0.0
  0
SPLINE
  5
129
330
1F
100
AcDbEntity
  8
0
  6
Continuous
 62
     7
370
    25
100
AcDbSpline
210
0.0
220
0.0
230
1.0
 70
     8
 71
     3
 72
    24
 73
    20
 74
     0
 42
0.00000001
 43
0.00000001
 40
0.0
 40
0.0
 40
0.0
 40
0.0
 40
0.031942565803319
 40
0.0932355257672731
 40
0.1547228205888328
 40
0.2163868675723777
 40
0.2781985543836218
 40
0.3401029521313608
 40
0.4020362224311838
 40
0.4639181712433075
 40
0.5256721111960269
 40
0.5872321166356413
 40
0.6485431846530854
 40
0.7095851713071873
 40
0.7704275770452269
 40
0.8312660701158595
 40
0.8925713048449658
 40
0.9553684571231557
 40
1.0
 40
1.0
 40
1.0
 40
1.0
 10
494.9203739792046
 20
-208.7846030275231
 30
0.0
 10
494.9159230048501
 20
-209.0129310284892
 30
0.0
 10
494.9029312828739
 20
-209.6793859823129
 30
0.0
 10
494.7560479386415
 20
-210.863735045502
 30
0.0
 10
494.4244208025655
 20
-212.3333345334667
 30
0.0
 10
493.9302676912475
 20
-213.8380559671818
 30
0.0
 10
493.2859323657755
 20
-215.3401414870395
 30
0.0
 10
492.5045197811884
 20
-216.8047021337854
 30
0.0
 10
491.6041601550659
 20
-218.1968879653
 30
0.0
 10
490.6063588864895
 20
-219.483902944107
 30
0.0
 10
489.5358091566505
 20
-220.6357721598465
 30
0.0
 10
488.4196812374205
 20
-221.6264361281086
 30
0.0
 10
487.2870781583194
 20
-222.4346051936292
 30
0.0
 10
486.1680237977088
 20
-223.0451142023623
 30
0.0
 10
485.0929134064547
 20
-223.4489452562408
 30
0.0
 10
484.0880845443344
 20
-223.647903319217
 30
0.0
 10
483.178678895614
 20
-223.6403767212278
 30
0.0
 10
482.4436023540406
 20
-223.4870361269465
 30
0.0
 10
482.058808463847
 20
-223.2554758350483
 30
0.0
 10
481.8989447981464
 20
-223.1592734835116
 30
0.0
  0
SPLINE
  5
12A
330
1F
100
AcDbEntity
  8
0
  6
Continuous
 62
     7
370
    25
100
AcDbSpline
210
0.0
220
0.0
230
1.0
 70
     8
 71
     3
 72
    20
 73
    16
 74
     0
 42
0.00000001
 43
0.00000001
 40
0.0
 40
0.0
 40
0.0
 40
0.0
 40
0.0090181492088285
 40
0.0935874257406975
 40
0.1780251379393739
 40
0.2623269269970018
 40
0.3465008263516601
 40
0.4305629060253696
 40
0.5145331086552056
 40
0.5984320207414539
 40
0.6822787688249894
 40
0.7660899003935081
 40
0.8498789842143202
 40
0.9336566655070033
 40
1.0
 40
1.0
 40
1.0
 40
1.0
 10
481.6703154417684
 20
-103.4097652642178
 30
0.0
 10
481.7415829945022
 20
-103.4803261608223
 30
0.0
 10
482.4811745276155
 20
-104.2125842459621
 30
0.0
 10
483.7553176535321
 20
-105.7969042126565
 30
0.0
 10
485.4757081947058
 20
-108.1694265774661
 30
0.0
 10
487.0285256508658
 20
-110.7490796047016
 30
0.0
 10
488.4281720678864
 20
-113.5025022930185
 30
0.0
 10
489.6664279418484
 20
-116.4295612529614
 30
0.0
 10
490.7415657008302
 20
-119.5208690237526
 30
0.0
 10
491.6506324579943
 20
-122.7690263916735
 30
0.0
 10
492.3911000470164
 20
-126.1658053769538
 30
0.0
 10
492.9619597379934
 20
-129.7019821948418
 30
0.0
 10
493.3578026606447
 20
-133.3706848399688
 30
0.0
 10
493.5753403696337
 20
-136.891755474015
 30
0.0
 10
493.5995415382018
 20
-139.224311640958
 30
0.0
 10
493.6102368176937
 20
-140.2551436880055
 30
0.0
  0
SPLINE
  5
12B
330
1F
100
AcDbEntity
  8
0
  6
Continuous
 62
     7
370
    25
100
AcDbSpline
210
0.0
220
0.0
230
1.0
 70
     8
 71
     3
 72
    50
 73
    46
 74
     0
 42
0.00000001
 43
0.00000001
 40
0.0
 40
0.0
 40
0.0
 40
0.0
 40
0.012480598279357
 40
0.0362249328513087
 40
0.0599734793906355
 40
0.0837245680847206
 40
0.1074786234769905
 40
0.1312358360332633
 40
0.1549962228091885
 40
0.1787596749575015
 40
0.2025259938262865
 40
0.2262949178860438
 40
0.2500661424576979
 40
0.2738393338926738
 40
0.2976141395438249
 40
0.3213901945913526
 40
0.3451671265610783
 40
0.3689445581937558
 40
0.3927221091900003
 40
0.4164993091800681
 40
0.4402757355096751
 40
0.464051004572693
 40
0.4878247338710212
 40
0.5115965441928645
 40
0.5353660631526245
 40
0.5591329306713635
 40
0.5828968071427059
 40
0.6066573852335889
 40
0.6304144065243618
 40
0.6541676844945646
 40
0.6779171356930018
 40
0.7016628212517573
 40
0.7254050011278903
 40
0.7491442034251012
 40
0.7728813105882235
 40
0.796617627935062
 40
0.8203544050323106
 40
0.8440940144976327
 40
0.8678396058409875
 40
0.8915951925853722
 40
0.9153656664103533
 40
0.9391566778556271
 40
0.9629743087260932
 40
0.9868244631648904
 40
1.0
 40
1.0
 40
1.0
 40
1.0
 10
493.6102368176937
 20
-140.2551436880055
 30
0.0
 10
493.6053934430029
 20
-140.9463262426929
 30
0.0
 10
493.5913355493807
 20
-142.9524834052834
 30
0.0
 10
493.4349563944811
 20
-146.3495504166493
 30
0.0
 10
493.0839256544917
 20
-150.4664963503349
 30
0.0
 10
492.5571596928127
 20
-154.6613258195505
 30
0.0
 10
491.8588890134516
 20
-158.9209394045015
 30
0.0
 10
490.9900073394922
 20
-163.2345092119725
 30
0.0
 10
489.9528976299057
 20
-167.5904230844281
 30
0.0
 10
488.7501354849497
 20
-171.9771124598409
 30
0.0
 10
487.3848275556541
 20
-176.3828756321627
 30
0.0
 10
485.860509606165
 20
-180.7959691962843
 30
0.0
 10
484.181160791824
 20
-185.2046266413057
 30
0.0
 10
482.3511852568914
 20
-189.5970955881272
 30
0.0
 10
480.3754011436702
 20
-193.9616692422306
 30
0.0
 10
478.2590264020188
 20
-198.2867186830063
 30
0.0
 10
476.0076643385947
 20
-202.5607242690057
 30
0.0
 10
473.6272881891767
 20
-206.7723066527213
 30
0.0
 10
471.1242280483486
 20
-210.9102521822453
 30
0.0
 10
468.5051529495625
 20
-214.963546286987
 30
0.0
 10
465.777051927816
 20
-218.9214056963179
 30
0.0
 10
462.947211828291
 20
-222.7733122768142
 30
0.0
 10
460.0231996019768
 20
-226.509038489023
 30
0.0
 10
457.0128439777488
 20
-230.1186731841489
 30
0.0
 10
453.924214973893
 20
-233.5926490999499
 30
0.0
 10
450.7656026545331
 20
-236.9217698114785
 30
0.0
 10
447.5454950711954
 20
-240.0972361176524
 30
0.0
 10
444.2725552957325
 20
-243.1106718367969
 30
0.0
 10
440.9555974087095
 20
-245.9541489651852
 30
0.0
 10
437.6035612552778
 20
-248.6202121197622
 30
0.0
 10
434.2254857248099
 20
-251.1019021215915
 30
0.0
 10
430.8304802400251
 20
-253.3927785057156
 30
0.0
 10
427.4276941290324
 20
-255.48694051769
 30
0.0
 10
424.0262833916104
 20
-257.379046268273
 30
0.0
 10
420.6353766093404
 20
-259.0643274474619
 30
0.0
 10
417.2640647852177
 20
-260.5385910004161
 30
0.0
 10
413.9213417470478
 20
-261.7982360520282
 30
0.0
 10
410.616045046916
 20
-262.8402868471443
 30
0.0
 10
407.3568328601684
 20
-263.662279011952
 30
0.0
 10
404.1519750069957
 20
-264.2626452310449
 30
0.0
 10
401.0100150033046
 20
-264.6391294559561
 30
0.0
 10
397.9371362232317
 20
-264.7945423749925
 30
0.0
 10
394.9469197301029
 20
-264.715032416616
 30
0.0
 10
392.4614739667121
 20
-264.4905969718302
 30
0.0
 10
391.0145510067396
 20
-264.2048166766774
 30
0.0
 10
390.4996656365881
 20
-264.1031221862848
 30
0.0
  0
SPLINE
  5
12C
330
1F
100
AcDbEntity
  8
0
  6
Continuous
 62
     7
370
    25
100
AcDbSpline
210
0.0
220
0.0
230
1.0
 70
     8
 71
     3
 72
    62
 73
    58
 74
     0
 42
0.00000001
 43
0.00000001
 40
0.0
 40
0.0
 40
0.0
 40
0.0
 40
0.0041573940251438
 40
0.0228489523880038
 40
0.0415110552938815
 40
0.0601432318004278
 40
0.0787476058958062
 40
0.0973279234005031
 40
0.1158886569026039
 40
0.1344343311370331
 40
0.1529690956675321
 40
0.1714965068676574
 40
0.1900194591873929
 40
0.2085402086688521
 40
0.2270603717346262
 40
0.2455808759062745
 40
0.2641026695195327
 40
0.2826263721485027
 40
0.3011523495786395
 40
0.3196807759088754
 40
0.3382116831730906
 40
0.3567449999723064
 40
0.3752805809199077
 40
0.3938182286687866
 40
0.4123577100960839
 40
0.4308987679734444
 40
0.4494411292039672
 40
0.4679845104874262
 40
0.4865286220922888
 40
0.5050731702680022
 40
0.5236178587211174
 40
0.5421623365573477
 40
0.5607062584761118
 40
0.5792493252611088
 40
0.5977912383646808
 40
0.6163317014715811
 40
0.634870423064475
 40
0.6534071204229515
 40
0.6719415256151176
 40
0.6904733941943756
 40
0.7090025175065786
 40
0.7275287397430013
 40
0.7460519811313995
 40
0.7645722689125594
 40
0.7830897779430134
 40
0.8016048827831066
 40
0.8201182227775721
 40
0.8386307805956806
 40
0.8571434973947205
 40
0.8756580913850025
 40
0.8941769173284689
 40
0.9127029958542903
 40
0.931240036302543
 40
0.9497923638886935
 40
0.9683646940618639
 40
0.9869616954570067
 40
1.0
 40
1.0
 40
1.0
 40
1.0
 10
388.6781767119137
 20
-263.5424930650489
 30
0.0
 10
388.5308096352579
 20
-263.3935143457984
 30
0.0
 10
387.7208832011253
 20
-262.5747303569843
 30
0.0
 10
386.3884004989955
 20
-260.8886736455453
 30
0.0
 10
384.6940557041183
 20
-258.4831308180454
 30
0.0
 10
383.1653735708618
 20
-255.8753581882008
 30
0.0
 10
381.7911003007517
 20
-253.0939181519178
 30
0.0
 10
380.578540047901
 20
-250.1402821624589
 30
0.0
 10
379.5295776765739
 20
-247.02355617878
 30
0.0
 10
378.6471259430414
 20
-243.7512489204925
 30
0.0
 10
377.9334032310836
 20
-240.3317876267876
 30
0.0
 10
377.3903724835212
 20
-236.7738739539604
 30
0.0
 10
377.0195904039912
 20
-233.086663460127
 30
0.0
 10
376.8222125017975
 20
-229.2797100989364
 30
0.0
 10
376.798958632697
 20
-225.3629707314135
 30
0.0
 10
376.950092476119
 20
-221.3467438323669
 30
0.0
 10
377.2754103306075
 20
-217.2416294394795
 30
0.0
 10
377.7742389499782
 20
-213.0584752178521
 30
0.0
 10
378.4454311919856
 20
-208.8083695823322
 30
0.0
 10
379.2873654891419
 20
-204.5026039688722
 30
0.0
 10
380.2979485075009
 20
-200.1526356415367
 30
0.0
 10
381.4746203775973
 20
-195.7700512807767
 30
0.0
 10
382.8143619872247
 20
-191.3665314332446
 30
0.0
 10
384.3137039543438
 20
-186.9538157974274
 30
0.0
 10
385.968736998227
 20
-182.5436692778199
 30
0.0
 10
387.775123506511
 20
-178.1478487286306
 30
0.0
 10
389.7281101542461
 20
-173.7780703144643
 30
0.0
 10
391.8225414727199
 20
-169.4459774298451
 30
0.0
 10
394.0528742946869
 20
-165.1631091360318
 30
0.0
 10
396.4131930214344
 20
-160.9408690904154
 30
0.0
 10
398.8972233079854
 20
-156.7904989041313
 30
0.0
 10
401.4983485544877
 20
-152.7230471154677
 30
0.0
 10
404.2096292828608
 20
-148.7493356649522
 30
0.0
 10
407.0238243654057
 20
-144.8799269896156
 30
0.0
 10
409.9334102230721
 20
-141.1250962684049
 30
0.0
 10
412.9305983149645
 20
-137.4948067012526
 30
0.0
 10
416.007355510545
 20
-133.9986819284624
 30
0.0
 10
419.1554252102182
 20
-130.6459789922196
 30
0.0
 10
422.3663492691696
 20
-127.4455618590357
 30
0.0
 10
425.6314908123884
 20
-124.4058755280119
 30
0.0
 10
428.9420580694613
 20
-121.534920767
 30
0.0
 10
432.2891294082788
 20
-118.8402295489307
 30
0.0
 10
435.6636798022893
 20
-116.3288413193354
 30
0.0
 10
439.0566090343609
 20
-114.0072802959006
 30
0.0
 10
442.4587719642846
 20
-111.8815341979857
 30
0.0
 10
445.861011322381
 20
-109.9570347561319
 30
0.0
 10
449.2541930500194
 20
-108.2386415105605
 30
0.0
 10
452.6292167082173
 20
-106.7306402993852
 30
0.0
 10
455.9770702643072
 20
-105.4367261625561
 30
0.0
 10
459.2888867125764
 20
-104.3599748295238
 30
0.0
 10
462.5559784123974
 20
-103.5029278470942
 30
0.0
 10
465.7700067112081
 20
-102.8673020806238
 30
0.0
 10
468.9224863661241
 20
-102.4552075374851
 30
0.0
 10
472.0067958493433
 20
-102.2647614654643
 30
0.0
 10
475.0107647537245
 20
-102.3066913544916
 30
0.0
 10
477.6506052662947
 20
-102.5188906163052
 30
0.0
 10
479.2435013292843
 20
-102.8148670428398
 30
0.0
 10
479.9000040359502
 20
-102.9368519793614
 30
0.0
  0
SPLINE
  5
12D
330
1F
100
AcDbEntity
  8
0
  6
Continuous
 62
     7
370
    25
100
AcDbSpline
210
0.0
220
0.0
230
1.0
 70
     8
 71
     3
 72
    14
 73
    10
 74
     0
 42
0.00000001
 43
0.00000001
 40
0.0
 40
0.0
 40
0.0
 40
0.0
 40
0.0532634230592693
 40
0.2528808595228065
 40
0.430889706651533
 40
0.6201064939467043
 40
0.8032280585694963
 40
0.9731718040508996
 40
1.0
 40
1.0
 40
1.0
 40
1.0
 10
517.6349447143829
 20
-120.4661968779212
 30
0.0
 10
517.7061118392222
 20
-120.495076688524
 30
0.0
 10
518.0439948115414
 20
-120.6321905071374
 30
0.0
 10
518.5063244428501
 20
-121.0596428616781
 30
0.0
 10
519.0449076908506
 20
-121.7732945643703
 30
0.0
 10
519.4441284200267
 20
-122.6807421533949
 30
0.0
 10
519.6971935809391
 20
-123.7579809546674
 30
0.0
 10
519.7699693988602
 20
-124.6171789723771
 30
0.0
 10
519.7728015778554
 20
-125.0874729929218
 30
0.0
 10
519.7731877215937
 20
-125.1515936192933
 30
0.0
  0
SPLINE
  5
12E
330
1F
100
AcDbEntity
  8
0
  6
Continuous
 62
     7
370
    25
100
AcDbSpline
210
0.0
220
0.0
230
1.0
 70
     8
 71
     3
 72
    24
 73
    20
 74
     0
 42
0.00000001
 43
0.00000001
 40
0.0
 40
0.0
 40
0.0
 40
0.0
 40
0.0319425658033184
 40
0.0932355257672845
 40
0.154722820588839
 40
0.2163868675723854
 40
0.2781985543836307
 40
0.3401029521313693
 40
0.4020362224311987
 40
0.4639181712433181
 40
0.5256721111960377
 40
0.5872321166356527
 40
0.6485431846530963
 40
0.7095851713071958
 40
0.7704275770452351
 40
0.83126607011587
 40
0.8925713048449739
 40
0.9553684571231655
 40
1.0
 40
1.0
 40
1.0
 40
1.0
 10
519.7731877215937
 20
-125.1515936192933
 30
0.0
 10
519.768736747239
 20
-125.3799216202594
 30
0.0
 10
519.7557450252629
 20
-126.0463765740831
 30
0.0
 10
519.6088616810305
 20
-127.2307256372723
 30
0.0
 10
519.2772345449545
 20
-128.700325125237
 30
0.0
 10
518.7830814336364
 20
-130.2050465589521
 30
0.0
 10
518.1387461081644
 20
-131.7071320788099
 30
0.0
 10
517.3573335235773
 20
-133.1716927255559
 30
0.0
 10
516.4569738974546
 20
-134.5638785570705
 30
0.0
 10
515.4591726288782
 20
-135.8508935358774
 30
0.0
 10
514.3886228990392
 20
-137.0027627516169
 30
0.0
 10
513.2724949798092
 20
-137.9934267198789
 30
0.0
 10
512.1398919007081
 20
-138.8015957853995
 30
0.0
 10
511.0208375400975
 20
-139.4121047941326
 30
0.0
 10
509.9457271488434
 20
-139.815935848011
 30
0.0
 10
508.9408982867232
 20
-140.0148939109872
 30
0.0
 10
508.0314926380028
 20
-140.0073673129979
 30
0.0
 10
507.2964160964295
 20
-139.8540267187166
 30
0.0
 10
506.9116222062358
 20
-139.6224664268183
 30
0.0
 10
506.7517585405352
 20
-139.5262640752817
 30
0.0
  0
SPLINE
  5
12F
330
1F
100
AcDbEntity
  8
0
  6
Continuous
 62
     7
370
    25
100
AcDbSpline
210
0.0
220
0.0
230
1.0
 70
     8
 71
     3
 72
    14
 73
    10
 74
     0
 42
0.00000001
 43
0.00000001
 40
0.0
 40
0.0
 40
0.0
 40
0.0
 40
0.0532634230592698
 40
0.2528808595228021
 40
0.4308897066515297
 40
0.6201064939466968
 40
0.8032280585694745
 40
0.9731718040508842
 40
1.0
 40
1.0
 40
1.0
 40
1.0
 10
432.7821309719917
 20
-267.4355810135744
 30
0.0
 10
432.8532980968312
 20
-267.4644608241772
 30
0.0
 10
433.1911810691503
 20
-267.6015746427906
 30
0.0
 10
433.6535107004589
 20
-268.0290269973314
 30
0.0
 10
434.1920939484593
 20
-268.7426787000235
 30
0.0
 10
434.5913146776356
 20
-269.650126289048
 30
0.0
 10
434.8443798385478
 20
-270.7273650903205
 30
0.0
 10
434.917155656469
 20
-271.5865631080302
 30
0.0
 10
434.9199878354641
 20
-272.0568571285748
 30
0.0
 10
434.9203739792023
 20
-272.1209777549464
 30
0.0
  0
SPLINE
  5
130
330
1F
100
AcDbEntity
  8
0
  6
Continuous
 62
     7
370
    25
100
AcDbSpline
210
0.0
220
0.0
230
1.0
 70
     8
 71
     3
 72
    24
 73
    20
 74
     0
 42
0.00000001
 43
0.00000001
 40
0.0
 40
0.0
 40
0.0
 40
0.0
 40
0.0319425658033188
 40
0.0932355257672868
 40
0.1547228205888452
 40
0.2163868675723889
 40
0.2781985543836321
 40
0.3401029521313688
 40
0.4020362224311972
 40
0.463918171243314
 40
0.5256721111960343
 40
0.5872321166356593
 40
0.6485431846530944
 40
0.7095851713071951
 40
0.7704275770452343
 40
0.8312660701158684
 40
0.8925713048449734
 40
0.9553684571231567
 40
1.0
 40
1.0
 40
1.0
 40
1.0
 10
434.9203739792023
 20
-272.1209777549464
 30
0.0
 10
434.9159230048479
 20
-272.3493057559126
 30
0.0
 10
434.9029312828717
 20
-273.0157607097363
 30
0.0
 10
434.7560479386393
 20
-274.2001097729255
 30
0.0
 10
434.4244208025631
 20
-275.6697092608903
 30
0.0
 10
433.9302676912451
 20
-277.1744306946053
 30
0.0
 10
433.2859323657731
 20
-278.6765162144631
 30
0.0
 10
432.504519781186
 20
-280.141076861209
 30
0.0
 10
431.6041601550634
 20
-281.5332626927236
 30
0.0
 10
430.6063588864871
 20
-282.8202776715305
 30
0.0
 10
429.5358091566481
 20
-283.97214688727
 30
0.0
 10
428.419681237418
 20
-284.9628108555321
 30
0.0
 10
427.2870781583169
 20
-285.7709799210526
 30
0.0
 10
426.1680237977063
 20
-286.3814889297857
 30
0.0
 10
425.0929134064523
 20
-286.7853199836641
 30
0.0
 10
424.0880845443319
 20
-286.9842780466403
 30
0.0
 10
423.1786788956116
 20
-286.9767514486511
 30
0.0
 10
422.4436023540383
 20
-286.8234108543697
 30
0.0
 10
422.0588084638447
 20
-286.5918505624715
 30
0.0
 10
421.898944798144
 20
-286.4956482109349
 30
0.0
  0
SPLINE
  5
131
330
1F
100
AcDbEntity
  8
0
  6
Continuous
 62
     7
370
    25
100
AcDbSpline
210
0.0
220
0.0
230
1.0
 70
     8
 71
     3
 72
    14
 73
    10
 74
     0
 42
0.00000001
 43
0.00000001
 40
0.0
 40
0.0
 40
0.0
 40
0.0
 40
0.0532634230592636
 40
0.2528808595227801
 40
0.430889706651507
 40
0.6201064939466668
 40
0.8032280585694461
 40
0.9731718040508601
 40
1.0
 40
1.0
 40
1.0
 40
1.0
 10
492.7821309719995
 20
-65.52763543814925
 30
0.0
 10
492.853298096839
 20
-65.55651524875198
 30
0.0
 10
493.1911810691581
 20
-65.69362906736546
 30
0.0
 10
493.6535107004668
 20
-66.12108142190613
 30
0.0
 10
494.1920939484671
 20
-66.83473312459824
 30
0.0
 10
494.5913146776434
 20
-67.74218071362272
 30
0.0
 10
494.8443798385557
 20
-68.8194195148951
 30
0.0
 10
494.917155656477
 20
-69.678617532605
 30
0.0
 10
494.9199878354721
 20
-70.14891155314965
 30
0.0
 10
494.9203739792102
 20
-70.21303217952128
 30
0.0
  0
SPLINE
  5
132
330
1F
100
AcDbEntity
  8
0
  6
Continuous
 62
     7
370
    25
100
AcDbSpline
210
0.0
220
0.0
230
1.0
 70
     8
 71
     3
 72
    24
 73
    20
 74
     0
 42
0.00000001
 43
0.00000001
 40
0.0
 40
0.0
 40
0.0
 40
0.0
 40
0.0319425658033188
 40
0.0932355257672847
 40
0.1547228205888468
 40
0.2163868675723906
 40
0.2781985543836351
 40
0.340102952131375
 40
0.4020362224311987
 40
0.4639181712433227
 40
0.5256721111960379
 40
0.5872321166356536
 40
0.6485431846530965
 40
0.7095851713071987
 40
0.7704275770452358
 40
0.831266070115869
 40
0.8925713048449716
 40
0.9553684571231649
 40
1.0
 40
1.0
 40
1.0
 40
1.0
 10
494.9203739792102
 20
-70.21303217952128
 30
0.0
 10
494.9159230048557
 20
-70.44136018048732
 30
0.0
 10
494.9029312828796
 20
-71.10781513431112
 30
0.0
 10
494.7560479386472
 20
-72.29216419750028
 30
0.0
 10
494.4244208025711
 20
-73.76176368546513
 30
0.0
 10
493.9302676912531
 20
-75.26648511918027
 30
0.0
 10
493.285932365781
 20
-76.76857063903797
 30
0.0
 10
492.5045197811938
 20
-78.23313128578391
 30
0.0
 10
491.6041601550713
 20
-79.62531711729851
 30
0.0
 10
490.6063588864949
 20
-80.91233209610543
 30
0.0
 10
489.5358091566559
 20
-82.06420131184491
 30
0.0
 10
488.4196812374259
 20
-83.05486528010687
 30
0.0
 10
487.2870781583248
 20
-83.86303434562747
 30
0.0
 10
486.1680237977142
 20
-84.47354335436054
 30
0.0
 10
485.0929134064602
 20
-84.87737440823895
 30
0.0
 10
484.0880845443399
 20
-85.07633247121512
 30
0.0
 10
483.1786788956195
 20
-85.06880587322593
 30
0.0
 10
482.4436023540462
 20
-84.91546527894458
 30
0.0
 10
482.0588084638526
 20
-84.68390498704635
 30
0.0
 10
481.898944798152
 20
-84.58770263550969
 30
0.0
  0
SPLINE
  5
133
330
1F
100
AcDbEntity
  8
0
  6
Continuous
 62
     7
370
    25
100
AcDbSpline
210
0.0
220
0.0
230
1.0
 70
     8
 71
     3
 72
    14
 73
    10
 74
     0
 42
0.00000001
 43
0.00000001
 40
0.0
 40
0.0
 40
0.0
 40
0.0
 40
0.0532634230592419
 40
0.2528808595227738
 40
0.4308897066515002
 40
0.6201064939466591
 40
0.8032280585694391
 40
0.9731718040508499
 40
1.0
 40
1.0
 40
1.0
 40
1.0
 10
372.7821309719917
 20
-273.3737317364111
 30
0.0
 10
372.8532980968311
 20
-273.4026115470139
 30
0.0
 10
373.1911810691502
 20
-273.5397253656272
 30
0.0
 10
373.6535107004588
 20
-273.9671777201679
 30
0.0
 10
374.1920939484593
 20
-274.68082942286
 30
0.0
 10
374.5913146776356
 20
-275.5882770118845
 30
0.0
 10
374.8443798385478
 20
-276.665515813157
 30
0.0
 10
374.9171556564691
 20
-277.5247138308668
 30
0.0
 10
374.9199878354642
 20
-277.9950078514115
 30
0.0
 10
374.9203739792024
 20
-278.0591284777831
 30
0.0
  0
SPLINE
  5
134
330
1F
100
AcDbEntity
  8
0
  6
Continuous
 62
     7
370
    25
100
AcDbSpline
210
0.0
220
0.0
230
1.0
 70
     8
 71
     3
 72
    24
 73
    20
 74
     0
 42
0.00000001
 43
0.00000001
 40
0.0
 40
0.0
 40
0.0
 40
0.0
 40
0.031942565803319
 40
0.0932355257672732
 40
0.1547228205888329
 40
0.2163868675723778
 40
0.278198554383622
 40
0.340102952131361
 40
0.4020362224311841
 40
0.4639181712433079
 40
0.5256721111960273
 40
0.5872321166356418
 40
0.6485431846530859
 40
0.7095851713071879
 40
0.7704275770452276
 40
0.8312660701158602
 40
0.8925713048449665
 40
0.9553684571231563
 40
1.0
 40
1.0
 40
1.0
 40
1.0
 10
374.9203739792025
 20
-278.0591284777832
 30
0.0
 10
374.9159230048479
 20
-278.2874564787492
 30
0.0
 10
374.9029312828718
 20
-278.953911432573
 30
0.0
 10
374.7560479386394
 20
-280.138260495762
 30
0.0
 10
374.4244208025633
 20
-281.6078599837267
 30
0.0
 10
373.9302676912454
 20
-283.1125814174418
 30
0.0
 10
373.2859323657734
 20
-284.6146669372995
 30
0.0
 10
372.5045197811863
 20
-286.0792275840454
 30
0.0
 10
371.6041601550637
 20
-287.4714134155601
 30
0.0
 10
370.6063588864874
 20
-288.758428394367
 30
0.0
 10
369.5358091566484
 20
-289.9102976101065
 30
0.0
 10
368.4196812374184
 20
-290.9009615783686
 30
0.0
 10
367.2870781583173
 20
-291.7091306438892
 30
0.0
 10
366.1680237977067
 20
-292.3196396526223
 30
0.0
 10
365.0929134064526
 20
-292.7234707065007
 30
0.0
 10
364.0880845443323
 20
-292.9224287694771
 30
0.0
 10
363.1786788956119
 20
-292.9149021714878
 30
0.0
 10
362.4436023540385
 20
-292.7615615772066
 30
0.0
 10
362.0588084638449
 20
-292.5300012853083
 30
0.0
 10
361.8989447981442
 20
-292.4337989337716
 30
0.0
  0
SPLINE
  5
135
330
1F
100
AcDbEntity
  8
0
  6
Continuous
 62
     7
370
    25
100
AcDbSpline
210
0.0
220
0.0
230
1.0
 70
     8
 71
     3
 72
    14
 73
    10
 74
     0
 42
0.00000001
 43
0.00000001
 40
0.0
 40
0.0
 40
0.0
 40
0.0
 40
0.0532634230592734
 40
0.2528808595228064
 40
0.430889706651533
 40
0.6201064939466866
 40
0.8032280585694674
 40
0.973171804050877
 40
1.0
 40
1.0
 40
1.0
 40
1.0
 10
432.7821309719997
 20
-71.46578616098597
 30
0.0
 10
432.8532980968391
 20
-71.49466597158874
 30
0.0
 10
433.1911810691583
 20
-71.6317797902022
 30
0.0
 10
433.6535107004669
 20
-72.05923214474286
 30
0.0
 10
434.1920939484673
 20
-72.77288384743511
 30
0.0
 10
434.5913146776436
 20
-73.6803314364596
 30
0.0
 10
434.8443798385558
 20
-74.75757023773197
 30
0.0
 10
434.9171556564771
 20
-75.61676825544176
 30
0.0
 10
434.9199878354722
 20
-76.08706227598641
 30
0.0
 10
434.9203739792104
 20
-76.15118290235797
 30
0.0
  0
SPLINE
  5
136
330
1F
100
AcDbEntity
  8
0
  6
Continuous
 62
     7
370
    25
100
AcDbSpline
210
0.0
220
0.0
230
1.0
 70
     8
 71
     3
 72
    24
 73
    20
 74
     0
 42
0.00000001
 43
0.00000001
 40
0.0
 40
0.0
 40
0.0
 40
0.0
 40
0.0319425658033185
 40
0.0932355257672862
 40
0.1547228205888441
 40
0.2163868675723879
 40
0.2781985543836314
 40
0.3401029521313682
 40
0.4020362224311931
 40
0.4639181712433152
 40
0.5256721111960325
 40
0.5872321166356465
 40
0.648543184653092
 40
0.7095851713071927
 40
0.7704275770452319
 40
0.831266070115866
 40
0.8925713048449704
 40
0.9553684571231649
 40
1.0
 40
1.0
 40
1.0
 40
1.0
 10
434.9203739792104
 20
-76.15118290235799
 30
0.0
 10
434.9159230048559
 20
-76.37951090332405
 30
0.0
 10
434.9029312828797
 20
-77.04596585714783
 30
0.0
 10
434.7560479386473
 20
-78.23031492033707
 30
0.0
 10
434.4244208025712
 20
-79.6999144083018
 30
0.0
 10
433.9302676912532
 20
-81.20463584201697
 30
0.0
 10
433.2859323657812
 20
-82.70672136187467
 30
0.0
 10
432.504519781194
 20
-84.17128200862054
 30
0.0
 10
431.6041601550714
 20
-85.56346784013515
 30
0.0
 10
430.6063588864951
 20
-86.85048281894213
 30
0.0
 10
429.5358091566561
 20
-88.00235203468151
 30
0.0
 10
428.4196812374261
 20
-88.99301600294359
 30
0.0
 10
427.287078158325
 20
-89.80118506846419
 30
0.0
 10
426.1680237977143
 20
-90.41169407719727
 30
0.0
 10
425.0929134064603
 20
-90.81552513107572
 30
0.0
 10
424.0880845443399
 20
-91.01448319405182
 30
0.0
 10
423.1786788956196
 20
-91.00695659606262
 30
0.0
 10
422.4436023540463
 20
-90.85361600178129
 30
0.0
 10
422.0588084638527
 20
-90.62205570988303
 30
0.0
 10
421.8989447981521
 20
-90.52585335834635
 30
0.0
  0
SPLINE
  5
137
330
1F
100
AcDbEntity
  8
0
  6
Continuous
 62
     7
370
    25
100
AcDbSpline
210
0.0
220
0.0
230
1.0
 70
     8
 71
     3
 72
    14
 73
    10
 74
     0
 42
0.00000001
 43
0.00000001
 40
0.0
 40
0.0
 40
0.0
 40
0.0
 40
0.0532634230592328
 40
0.2528808595227475
 40
0.4308897066514743
 40
0.6201064939466324
 40
0.8032280585693984
 40
0.9731718040508117
 40
1.0
 40
1.0
 40
1.0
 40
1.0
 10
347.9293172296083
 20
-218.4351702966391
 30
0.0
 10
348.0004843544477
 20
-218.4640501072418
 30
0.0
 10
348.3383673267669
 20
-218.6011639258552
 30
0.0
 10
348.8006969580754
 20
-219.0286162803958
 30
0.0
 10
349.3392802060758
 20
-219.7422679830879
 30
0.0
 10
349.7385009352523
 20
-220.6497155721123
 30
0.0
 10
349.9915660961644
 20
-221.7269543733848
 30
0.0
 10
350.0643419140858
 20
-222.5861523910945
 30
0.0
 10
350.0671740930809
 20
-223.0564464116394
 30
0.0
 10
350.0675602368192
 20
-223.1205670380111
 30
0.0
  0
SPLINE
  5
138
330
1F
100
AcDbEntity
  8
0
  6
Continuous
 62
     7
370
    25
100
AcDbSpline
210
0.0
220
0.0
230
1.0
 70
     8
 71
     3
 72
    24
 73
    20
 74
     0
 42
0.00000001
 43
0.00000001
 40
0.0
 40
0.0
 40
0.0
 40
0.0
 40
0.0319425658033186
 40
0.093235525767285
 40
0.1547228205888433
 40
0.2163868675723867
 40
0.2781985543836321
 40
0.340102952131372
 40
0.4020362224311954
 40
0.4639181712433164
 40
0.5256721111960365
 40
0.5872321166356519
 40
0.648543184653096
 40
0.7095851713071963
 40
0.7704275770452355
 40
0.8312660701158703
 40
0.8925713048449745
 40
0.9553684571231625
 40
0.9999999999999999
 40
0.9999999999999999
 40
0.9999999999999999
 40
0.9999999999999999
 10
350.0675602368192
 20
-223.1205670380111
 30
0.0
 10
350.0631092624646
 20
-223.3488950389772
 30
0.0
 10
350.0501175404885
 20
-224.015349992801
 30
0.0
 10
349.903234196256
 20
-225.1996990559902
 30
0.0
 10
349.57160706018
 20
-226.6692985439549
 30
0.0
 10
349.0774539488619
 20
-228.1740199776701
 30
0.0
 10
348.4331186233899
 20
-229.6761054975278
 30
0.0
 10
347.6517060388028
 20
-231.1406661442737
 30
0.0
 10
346.7513464126802
 20
-232.5328519757883
 30
0.0
 10
345.7535451441038
 20
-233.8198669545952
 30
0.0
 10
344.6829954142649
 20
-234.9717361703347
 30
0.0
 10
343.5668674950348
 20
-235.9624001385967
 30
0.0
 10
342.4342644159337
 20
-236.7705692041174
 30
0.0
 10
341.3152100553232
 20
-237.3810782128504
 30
0.0
 10
340.2400996640691
 20
-237.7849092667288
 30
0.0
 10
339.2352708019488
 20
-237.983867329705
 30
0.0
 10
338.3258651532284
 20
-237.9763407317158
 30
0.0
 10
337.5907886116552
 20
-237.8230001374345
 30
0.0
 10
337.2059947214615
 20
-237.5914398455362
 30
0.0
 10
337.0461310557608
 20
-237.4952374939996
 30
0.0
  0
SPLINE
  5
139
330
1F
100
AcDbEntity
  8
0
  6
Continuous
 62
     7
370
    25
100
AcDbSpline
210
0.0
220
0.0
230
1.0
 70
     8
 71
     3
 72
    14
 73
    10
 74
     0
 42
0.00000001
 43
0.00000001
 40
0.0
 40
0.0
 40
0.0
 40
0.0
 40
0.0532634230592348
 40
0.2528808595227472
 40
0.430889706651474
 40
0.6201064939466322
 40
0.8032280585694104
 40
0.9731718040508206
 40
0.9999999999999999
 40
0.9999999999999999
 40
0.9999999999999999
 40
0.9999999999999999
 10
372.7821309719974
 20
-134.8021608884093
 30
0.0
 10
372.8532980968367
 20
-134.831040699012
 30
0.0
 10
373.1911810691558
 20
-134.9681545176254
 30
0.0
 10
373.6535107004645
 20
-135.395606872166
 30
0.0
 10
374.1920939484648
 20
-136.1092585748581
 30
0.0
 10
374.5913146776412
 20
-137.0167061638826
 30
0.0
 10
374.8443798385534
 20
-138.093944965155
 30
0.0
 10
374.9171556564748
 20
-138.9531429828648
 30
0.0
 10
374.9199878354699
 20
-139.4234370034096
 30
0.0
 10
374.9203739792081
 20
-139.4875576297813
 30
0.0
  0
SPLINE
  5
13A
330
1F
100
AcDbEntity
  8
0
  6
Continuous
 62
     7
370
    25
100
AcDbSpline
210
0.0
220
0.0
230
1.0
 70
     8
 71
     3
 72
    24
 73
    20
 74
     0
 42
0.00000001
 43
0.00000001
 40
0.0
 40
0.0
 40
0.0
 40
0.0
 40
0.031942565803319
 40
0.0932355257672732
 40
0.1547228205888329
 40
0.2163868675723777
 40
0.2781985543836219
 40
0.3401029521313609
 40
0.4020362224311839
 40
0.4639181712433077
 40
0.5256721111960271
 40
0.5872321166356416
 40
0.6485431846530857
 40
0.7095851713071876
 40
0.7704275770452272
 40
0.8312660701158598
 40
0.8925713048449662
 40
0.955368457123156
 40
1.0
 40
1.0
 40
1.0
 40
1.0
 10
374.9203739792081
 20
-139.4875576297813
 30
0.0
 10
374.9159230048536
 20
-139.7158856307474
 30
0.0
 10
374.9029312828774
 20
-140.3823405845711
 30
0.0
 10
374.7560479386451
 20
-141.5666896477601
 30
0.0
 10
374.424420802569
 20
-143.0362891357248
 30
0.0
 10
373.9302676912511
 20
-144.54101056944
 30
0.0
 10
373.285932365779
 20
-146.0430960892977
 30
0.0
 10
372.5045197811919
 20
-147.5076567360435
 30
0.0
 10
371.6041601550693
 20
-148.8998425675582
 30
0.0
 10
370.6063588864931
 20
-150.1868575463652
 30
0.0
 10
369.5358091566541
 20
-151.3387267621047
 30
0.0
 10
368.419681237424
 20
-152.3293907303667
 30
0.0
 10
367.287078158323
 20
-153.1375597958873
 30
0.0
 10
366.1680237977124
 20
-153.7480688046205
 30
0.0
 10
365.0929134064583
 20
-154.1518998584989
 30
0.0
 10
364.088084544338
 20
-154.3508579214752
 30
0.0
 10
363.1786788956176
 20
-154.343331323486
 30
0.0
 10
362.4436023540442
 20
-154.1899907292047
 30
0.0
 10
362.0588084638506
 20
-153.9584304373064
 30
0.0
 10
361.8989447981499
 20
-153.8622280857698
 30
0.0
  0
LWPOLYLINE
  5
13B
330
1F
100
AcDbEntity
  8
0
  6
Continuous
 62
     7
370
    25
100
AcDbPolyline
 90
      143
 70
   128
 43
0.0
 10
526.7835953617
 20
-120.8654510322
 10
526.6856635845
 20
-115.8112417459
 10
526.3920599592
 20
-110.8799959347
 10
525.9033592284
 20
-106.0813667439
 10
525.220518047
 20
-101.4247477154
 10
524.3448731085
 20
-96.9192543999
 10
523.278138529
 20
-92.5737065118
 10
522.0224024917
 20
-88.3966106654
 10
520.5801231587
 20
-84.3961437219
 10
518.9541238595
 20
-80.5801367831
 10
517.1475875642
 20
-76.956059862
 10
515.1640506524
 20
-73.5310072592
 10
513.0073959907
 20
-70.311683676
 10
510.6818453319
 20
-67.3043910896
 10
508.1919510507
 20
-64.5150164164
 10
505.542587232
 20
-61.9490199883
 10
502.7389401298
 20
-59.6114248638
 10
499.7864980152
 20
-57.5068069952
 10
496.6910404321
 20
-55.6392862707
 10
493.4586268841
 20
-54.0125184499
 10
490.0955849726
 20
-52.6296880072
 10
486.60849801
 20
-51.4935018981
 10
483.0041921328
 20
-50.6061842603
 10
479.2897229391
 20
-49.9694720597
 10
475.4723616766
 20
-49.5846116904
 10
471.5595810093
 20
-49.4523565345
 10
467.5590403892
 20
-49.5729654879
 10
463.4785710624
 20
-49.9462024527
 10
459.3261607391
 20
-50.5713368001
 10
455.1099379576
 20
-51.4471448003
 10
450.838156172
 20
-52.571912018
 10
446.5191775958
 20
-53.9434366684
 10
442.1614568322
 20
-55.5590339278
 10
437.7735243244
 20
-57.4155411886
 10
433.3639696563
 20
-59.5093242507
 10
428.9414247381
 20
-61.8362844354
 10
424.5145469094
 20
-64.3918666088
 10
420.0920019913
 20
-67.1710680989
 10
415.6824473232
 20
-70.1684484882
 10
411.2945148154
 20
-73.3781402638
 10
406.9367940518
 20
-76.7938603034
 10
402.6178154755
 20
-80.4089221746
 10
398.3460336899
 20
-84.216249224
 10
394.1298109085
 20
-88.2083884302
 10
389.9774005852
 20
-92.3775249931
 10
385.8969312583
 20
-96.7154976321
 10
381.8963906382
 20
-101.2138145622
 10
377.983609971
 20
-105.8636701166
 10
374.1662487085
 20
-110.6559619848
 10
370.4517795147
 20
-115.5813090303
 10
366.8474736375
 20
-120.6300696551
 10
363.360386675
 20
-125.7923606732
 10
359.9973447634
 20
-131.0580766574
 10
356.7649312155
 20
-136.4169097214
 10
353.6694736324
 20
-141.8583696979
 10
350.7170315177
 20
-147.3718046734
 10
347.9133844156
 20
-152.94642184
 10
345.2640205969
 20
-158.5713086229
 10
342.7741263157
 20
-164.235454042
 10
340.4485756569
 20
-169.9277702667
 10
338.2919209952
 20
-175.6371143207
 10
336.3083840834
 20
-181.3523098948
 10
334.5018477881
 20
-187.0621692254
 10
332.8758484889
 20
-192.7555149947
 10
331.4335691559
 20
-198.4212022109
 10
330.1778331185
 20
-204.0481400253
 10
329.1110985391
 20
-209.6253134429
 10
328.2354536006
 20
-215.1418048847
 10
327.5526124191
 20
-220.5868155598
 10
327.0639116884
 20
-225.9496866041
 10
326.770308063
 20
-231.2199199456
 10
326.6723762859
 20
-236.3871988551
 10
326.770308063
 20
-241.4414081415
 10
327.0639116884
 20
-246.3726539527
 10
327.5526124191
 20
-251.1712831435
 10
328.2354536006
 20
-255.8279021719
 10
329.1110985391
 20
-260.3333954875
 10
330.1778331185
 20
-264.6789433755
 10
331.4335691559
 20
-268.8560392219
 10
332.8758484889
 20
-272.8565061655
 10
334.5018477881
 20
-276.6725131042
 10
336.3083840834
 20
-280.2965900253
 10
338.2919209952
 20
-283.7216426282
 10
340.4485756569
 20
-286.9409662113
 10
342.7741263157
 20
-289.9482587977
 10
345.2640205969
 20
-292.737633471
 10
347.9133844156
 20
-295.3036298991
 10
350.7170315177
 20
-297.6412250235
 10
353.6694736324
 20
-299.7458428922
 10
356.7649312155
 20
-301.6133636166
 10
359.9973447634
 20
-303.2401314374
 10
363.360386675
 20
-304.6229618801
 10
366.8474736375
 20
-305.7591479892
 10
370.4517795147
 20
-306.646465627
 10
374.1662487085
 20
-307.2831778276
 10
377.983609971
 20
-307.668038197
 10
381.8963906382
 20
-307.8002933528
 10
385.8969312583
 20
-307.6796843995
 10
389.9774005852
 20
-307.3064474347
 10
394.1298109085
 20
-306.6813130872
 10
398.3460336899
 20
-305.805505087
 10
402.6178154755
 20
-304.6807378694
 10
406.9367940518
 20
-303.3092132189
 10
411.2945148154
 20
-301.6936159595
 10
415.6824473232
 20
-299.8371086987
 10
420.0920019913
 20
-297.7433256366
 10
424.5145469094
 20
-295.416365452
 10
428.9414247381
 20
-292.8607832786
 10
433.3639696563
 20
-290.0815817885
 10
437.7735243244
 20
-287.0842013992
 10
442.1614568322
 20
-283.8745096235
 10
446.5191775958
 20
-280.4587895839
 10
450.838156172
 20
-276.8437277127
 10
455.1099379576
 20
-273.0364006633
 10
459.3261607391
 20
-269.0442614572
 10
463.4785710624
 20
-264.8751248943
 10
467.5590403892
 20
-260.5371522552
 10
471.5595810093
 20
-256.0388353252
 10
475.4723616766
 20
-251.3889797708
 10
479.2897229391
 20
-246.5966879026
 10
483.0041921328
 20
-241.671340857
 10
486.60849801
 20
-236.6225802322
 10
490.0955849726
 20
-231.4602892142
 10
493.4586268841
 20
-226.19457323
 10
496.6910404321
 20
-220.835740166
 10
499.7864980152
 20
-215.3942801895
 10
502.7389401298
 20
-209.880845214
 10
505.542587232
 20
-204.3062280474
 10
508.1919510507
 20
-198.6813412645
 10
510.6818453319
 20
-193.0171958453
 10
513.0073959907
 20
-187.3248796206
 10
515.1640506524
 20
-181.6155355667
 10
517.1475875642
 20
-175.9003399925
 10
518.9541238595
 20
-170.1904806619
 10
520.5801231587
 20
-164.4971348927
 10
522.0224024917
 20
-158.8314476765
 10
523.278138529
 20
-153.2045098621
 10
524.3448731085
 20
-147.6273364445
 10
525.220518047
 20
-142.1108450026
 10
525.9033592284
 20
-136.6658343275
 10
526.3920599592
 20
-131.3029632832
 10
526.6856635845
 20
-126.0327299417
 10
526.7835953617
 20
-120.8654510322
  0
ARC
  5
13C
330
1F
100
AcDbEntity
  8
0
  6
Continuous
 62
     7
370
    25
100
AcDbCircle
 10
380.5368648018
 20
-260.2587722022
 30
0.0
 40
48.69284924714525
100
AcDbArc
 50
219.9954526266
 51
258.7034322171
  0
ARC
  5
13D
330
1F
100
AcDbEntity
  8
0
  6
Continuous
 62
     7
370
    25
100
AcDbCircle
 10
474.2986678317
 20
-97.8572732604
 30
0.0
 40
48.74969125609229
100
AcDbArc
 50
39.9893257703
 51
79.882229621
  0
ARC
  5
13E
330
1F
100
AcDbEntity
  8
0
  6
Continuous
 62
     7
370
    25
100
AcDbCircle
 10
489.5541297667
 20
-107.1125712231
 30
0.0
 40
49.15522815763106
100
AcDbArc
 50
40.4465630798
 51
59.8600488215
  0
ARC
  5
13F
330
1F
100
AcDbEntity
  8
0
  6
Continuous
 62
     7
370
    25
100
AcDbCircle
 10
396.2700555491
 20
-268.6566463185
 30
0.0
 40
49.30182967505311
100
AcDbArc
 50
240.1717409608
 51
259.7798236698
  0
LWPOLYLINE
  5
140
330
1F
100
AcDbEntity
  8
0
  6
Continuous
 62
     7
370
    25
100
AcDbPolyline
 90
       42
 70
   128
 43
0.0
 10
350.3604534556
 20
-222.7123629821
 10
350.2610095538
 20
-224.2655031703
 10
349.9650087292
 20
-225.897054554
 10
349.4793889901
 20
-227.5687749515
 10
348.8155328518
 20
-229.2414806538
 10
347.9890005393
 20
-230.8759648567
 10
347.0191652697
 20
-232.433916636
 10
345.9287591595
 20
-233.8788189223
 10
344.7433404039
 20
-235.1768044307
 10
343.4906942138
 20
-236.2974494811
 10
342.2001815542
 20
-237.2144871033
 10
340.9020509479
 20
-237.9064227126
 10
339.6267294763
 20
-238.3570379248
 10
338.4041095936
 20
-238.5557707013
 10
337.2628484737
 20
-238.4979629142
 10
336.22969631
 20
-238.184969529
 10
335.3288693134
 20
-237.6241268455
 10
334.5814821054
 20
-236.8285805408
 10
334.0050528085
 20
-235.816977546
 10
333.613092437
 20
-234.6130289778
 10
333.4147882097
 20
-233.2449543704
 10
333.4147882097
 20
-231.744820233
 10
333.613092437
 20
-230.1477884382
 10
334.0050528085
 20
-228.4912920579
 10
334.5814821054
 20
-226.8141579631
 10
335.3288693134
 20
-225.1556967556
 10
336.22969631
 20
-223.5547813605
 10
337.2628484737
 20
-222.0489358776
 10
338.4041095936
 20
-220.673456049
 10
339.6267294763
 20
-219.4605819558
 10
340.9020509479
 20
-218.4387423389
 10
342.2001815542
 20
-217.6318882529
 10
343.4906942138
 20
-217.0589316736
 10
344.7433404039
 20
-216.7333022177
 10
345.9287591595
 20
-216.6626323636
 10
347.0191652697
 20
-216.8485785528
 10
347.9890005393
 20
-217.2867823643
 10
348.8155328518
 20
-217.966972672
 10
349.4793889901
 20
-218.8732063917
 10
349.9650087292
 20
-219.984242173
 10
350.2610095538
 20
-221.274038279
 10
350.3604534556
 20
-222.7123629821
  0
LWPOLYLINE
  5
141
330
1F
100
AcDbEntity
  8
0
  6
Continuous
 62
     7
370
    25
100
AcDbPolyline
 90
       42
 70
   128
 43
0.0
 10
495.213267198
 20
-208.3763989716
 10
495.1138232962
 20
-209.9295391598
 10
494.8178224715
 20
-211.5610905435
 10
494.3322027325
 20
-213.2328109411
 10
493.6683465941
 20
-214.9055166433
 10
492.8418142817
 20
-216.5400008462
 10
491.871979012
 20
-218.0979526255
 10
490.7815729019
 20
-219.5428549118
 10
489.5961541463
 20
-220.8408404203
 10
488.3435079562
 20
-221.9614854706
 10
487.0529952965
 20
-222.8785230928
 10
485.7548646903
 20
-223.5704587021
 10
484.4795432187
 20
-224.0210739143
 10
483.256923336
 20
-224.2198066908
 10
482.1156622161
 20
-224.1619989037
 10
481.0825100524
 20
-223.8490055186
 10
480.1816830558
 20
-223.2881628351
 10
479.4342958477
 20
-222.4926165303
 10
478.8578665509
 20
-221.4810135355
 10
478.4659061794
 20
-220.2770649673
 10
478.2676019521
 20
-218.9089903599
 10
478.2676019521
 20
-217.4088562225
 10
478.4659061794
 20
-215.8118244277
 10
478.8578665509
 20
-214.1553280474
 10
479.4342958477
 20
-212.4781939526
 10
480.1816830558
 20
-210.8197327451
 10
481.0825100524
 20
-209.21881735
 10
482.1156622161
 20
-207.7129718671
 10
483.256923336
 20
-206.3374920385
 10
484.4795432187
 20
-205.1246179453
 10
485.7548646903
 20
-204.1027783285
 10
487.0529952965
 20
-203.2959242424
 10
488.3435079562
 20
-202.7229676632
 10
489.5961541463
 20
-202.3973382072
 10
490.7815729019
 20
-202.3266683532
 10
491.871979012
 20
-202.5126145424
 10
492.8418142817
 20
-202.9508183538
 10
493.6683465941
 20
-203.6310086615
 10
494.3322027325
 20
-204.5372423812
 10
494.8178224715
 20
-205.6482781625
 10
495.1138232962
 20
-206.9380742685
 10
495.213267198
 20
-208.3763989716
  0
LWPOLYLINE
  5
142
330
1F
100
AcDbEntity
  8
0
  6
Continuous
 62
     7
370
    25
100
AcDbPolyline
 90
       42
 70
   128
 43
0.0
 10
495.213267198
 20
-69.8048281236
 10
495.1138232962
 20
-71.3579683118
 10
494.8178224716
 20
-72.9895196955
 10
494.3322027325
 20
-74.6612400931
 10
493.6683465941
 20
-76.3339457953
 10
492.8418142817
 20
-77.9684299982
 10
491.8719790121
 20
-79.5263817775
 10
490.7815729019
 20
-80.9712840638
 10
489.5961541463
 20
-82.2692695723
 10
488.3435079562
 20
-83.3899146226
 10
487.0529952965
 20
-84.3069522448
 10
485.7548646903
 20
-84.9988878541
 10
484.4795432187
 20
-85.4495030663
 10
483.256923336
 20
-85.6482358428
 10
482.1156622161
 20
-85.5904280557
 10
481.0825100524
 20
-85.2774346706
 10
480.1816830558
 20
-84.716591987
 10
479.4342958478
 20
-83.9210456823
 10
478.8578665509
 20
-82.9094426875
 10
478.4659061794
 20
-81.7054941193
 10
478.2676019521
 20
-80.3374195119
 10
478.2676019521
 20
-78.8372853745
 10
478.4659061794
 20
-77.2402535797
 10
478.8578665509
 20
-75.5837571994
 10
479.4342958478
 20
-73.9066231046
 10
480.1816830558
 20
-72.2481618971
 10
481.0825100524
 20
-70.647246502
 10
482.1156622161
 20
-69.1414010191
 10
483.256923336
 20
-67.7659211905
 10
484.4795432187
 20
-66.5530470973
 10
485.7548646903
 20
-65.5312074805
 10
487.0529952965
 20
-64.7243533944
 10
488.3435079562
 20
-64.1513968152
 10
489.5961541463
 20
-63.8257673592
 10
490.7815729019
 20
-63.7550975052
 10
491.8719790121
 20
-63.9410436944
 10
492.8418142817
 20
-64.3792475058
 10
493.6683465941
 20
-65.0594378135
 10
494.3322027325
 20
-65.9656715332
 10
494.8178224716
 20
-67.0767073145
 10
495.1138232962
 20
-68.3665034205
 10
495.213267198
 20
-69.8048281236
  0
LWPOLYLINE
  5
143
330
1F
100
AcDbEntity
  8
0
  6
Continuous
 62
     7
370
    25
100
AcDbPolyline
 90
       42
 70
   128
 43
0.0
 10
435.213267198
 20
-75.7429788464
 10
435.1138232962
 20
-77.2961190346
 10
434.8178224716
 20
-78.9276704183
 10
434.3322027325
 20
-80.5993908159
 10
433.6683465941
 20
-82.2720965181
 10
432.8418142817
 20
-83.906580721
 10
431.8719790121
 20
-85.4645325003
 10
430.7815729019
 20
-86.9094347866
 10
429.5961541463
 20
-88.2074202951
 10
428.3435079562
 20
-89.3280653455
 10
427.0529952965
 20
-90.2451029676
 10
425.7548646903
 20
-90.9370385769
 10
424.4795432187
 20
-91.3876537891
 10
423.256923336
 20
-91.5863865656
 10
422.1156622161
 20
-91.5285787785
 10
421.0825100524
 20
-91.2155853934
 10
420.1816830558
 20
-90.6547427099
 10
419.4342958478
 20
-89.8591964052
 10
418.8578665509
 20
-88.8475934103
 10
418.4659061794
 20
-87.6436448422
 10
418.2676019521
 20
-86.2755702348
 10
418.2676019521
 20
-84.7754360973
 10
418.4659061794
 20
-83.1784043026
 10
418.8578665509
 20
-81.5219079222
 10
419.4342958478
 20
-79.8447738275
 10
420.1816830558
 20
-78.18631262
 10
421.0825100524
 20
-76.5853972248
 10
422.1156622161
 20
-75.079551742
 10
423.256923336
 20
-73.7040719133
 10
424.4795432187
 20
-72.4911978201
 10
425.7548646903
 20
-71.4693582033
 10
427.0529952965
 20
-70.6625041173
 10
428.3435079562
 20
-70.089547538
 10
429.5961541463
 20
-69.7639180821
 10
430.7815729019
 20
-69.693248228
 10
431.8719790121
 20
-69.8791944172
 10
432.8418142817
 20
-70.3173982286
 10
433.6683465941
 20
-70.9975885363
 10
434.3322027325
 20
-71.903822256
 10
434.8178224716
 20
-73.0148580374
 10
435.1138232962
 20
-74.3046541434
 10
435.213267198
 20
-75.7429788464
  0
LWPOLYLINE
  5
144
330
1F
100
AcDbEntity
  8
0
  6
Continuous
 62
     7
370
    25
100
AcDbPolyline
 90
      117
 70
   128
 43
0.0
 10
493.9031300365
 20
-139.8469396321
 10
493.8046119005
 20
-144.1034426367
 10
493.509346463
 20
-148.4612072033
 10
493.0181997885
 20
-152.9074512577
 10
492.3326124947
 20
-157.4291331998
 10
491.4545955274
 20
-162.0129901576
 10
490.3867242616
 20
-166.6455768887
 10
489.1321309477
 20
-171.3133052182
 10
487.6944955241
 20
-176.0024838945
 10
486.0780348231
 20
-180.6993587487
 10
484.2874902025
 20
-185.3901530375
 10
482.3281136383
 20
-190.0611078532
 10
480.2056523193
 20
-194.6985224804
 10
477.9263317904
 20
-199.2887945831
 10
475.4968376915
 20
-203.8184601021
 10
472.9242961473
 20
-208.2742327483
 10
470.2162528653
 20
-212.6430429725
 10
467.3806510032
 20
-216.9120763018
 10
464.4258078698
 20
-221.0688109258
 10
461.3603905291
 20
-225.1010544256
 10
458.1933903782
 20
-228.9969795364
 10
454.9340967744
 20
-232.7451588386
 10
451.5920697874
 20
-236.3345982763
 10
448.177112158
 20
-239.7547694054
 10
444.6992405455
 20
-242.9956402746
 10
441.1686561464
 20
-246.0477048512
 10
437.5957147732
 20
-248.902010904
 10
433.9908964786
 20
-251.5501862615
 10
430.3647748155
 20
-253.9844633692
 10
426.7279858238
 20
-256.1977020728
 10
423.091196832
 20
-258.183410562
 10
419.465075169
 20
-259.9357644115
 10
415.8602568743
 20
-261.4496236656
 10
412.2873155011
 20
-262.7205479143
 10
408.7567311021
 20
-263.7448093178
 10
405.2788594896
 20
-264.5194035408
 10
401.8639018602
 20
-265.0420585652
 10
398.5218748731
 20
-265.3112413536
 10
395.2625812693
 20
-265.3261623466
 10
392.0955811185
 20
-265.0867777783
 10
389.0301637778
 20
-264.5937898049
 10
386.0753206443
 20
-263.8486444451
 10
383.2397187822
 20
-262.8535273385
 10
380.5316755003
 20
-261.6113573351
 10
377.9591339561
 20
-260.1257779337
 10
375.5296398571
 20
-258.4011465944
 10
373.2503193283
 20
-256.4425219582
 10
371.1278580093
 20
-254.2556490086
 10
369.168481445
 20
-251.8469422207
 10
367.3779368244
 20
-249.2234667467
 10
365.7614761235
 20
-246.392917692
 10
364.3238406998
 20
-243.3635975447
 10
363.0692473859
 20
-240.1443918228
 10
362.0013761201
 20
-236.7447430113
 10
361.1233591529
 20
-233.174622866
 10
360.4377718591
 20
-229.4445031643
 10
359.9466251846
 20
-225.56532499
 10
359.6513597471
 20
-221.5484666411
 10
359.5528416111
 20
-217.4057102553
 10
359.6513597471
 20
-213.1492072507
 10
359.9466251846
 20
-208.791442684
 10
360.4377718591
 20
-204.3451986297
 10
361.1233591529
 20
-199.8235166875
 10
362.0013761201
 20
-195.2396597298
 10
363.0692473859
 20
-190.6070729986
 10
364.3238406998
 20
-185.9393446692
 10
365.7614761235
 20
-181.2501659929
 10
367.3779368244
 20
-176.5532911387
 10
369.168481445
 20
-171.8624968498
 10
371.1278580093
 20
-167.1915420341
 10
373.2503193283
 20
-162.5541274069
 10
375.5296398571
 20
-157.9638553043
 10
377.9591339561
 20
-153.4341897852
 10
380.5316755003
 20
-148.9784171391
 10
383.2397187822
 20
-144.6096069148
 10
386.0753206443
 20
-140.3405735856
 10
389.0301637778
 20
-136.1838389616
 10
392.0955811185
 20
-132.1515954617
 10
395.2625812693
 20
-128.2556703509
 10
398.5218748731
 20
-124.5074910488
 10
401.8639018602
 20
-120.918051611
 10
405.2788594896
 20
-117.4978804819
 10
408.7567311021
 20
-114.2570096128
 10
412.2873155011
 20
-111.2049450362
 10
415.8602568743
 20
-108.3506389834
 10
419.465075169
 20
-105.7024636258
 10
423.091196832
 20
-103.2681865182
 10
426.7279858238
 20
-101.0549478145
 10
430.3647748155
 20
-99.0692393254
 10
433.9908964786
 20
-97.3168854759
 10
437.5957147732
 20
-95.8030262218
 10
441.1686561464
 20
-94.5321019731
 10
444.6992405455
 20
-93.5078405696
 10
448.177112158
 20
-92.7332463465
 10
451.5920697874
 20
-92.2105913221
 10
454.9340967744
 20
-91.9414085337
 10
458.1933903783
 20
-91.9264875407
 10
461.3603905291
 20
-92.165872109
 10
464.4258078698
 20
-92.6588600824
 10
467.3806510032
 20
-93.4040054423
 10
470.2162528653
 20
-94.3991225489
 10
472.9242961473
 20
-95.6412925522
 10
475.4968376915
 20
-97.1268719537
 10
477.9263317904
 20
-98.851503293
 10
480.2056523193
 20
-100.8101279292
 10
482.3281136383
 20
-102.9970008788
 10
484.2874902025
 20
-105.4057076666
 10
486.0780348231
 20
-108.0291831407
 10
487.6944955241
 20
-110.8597321954
 10
489.1321309477
 20
-113.8890523427
 10
490.3867242616
 20
-117.1082580645
 10
491.4545955274
 20
-120.507906876
 10
492.3326124947
 20
-124.0780270214
 10
493.0181997885
 20
-127.8081467231
 10
493.509346463
 20
-131.6873248973
 10
493.8046119005
 20
-135.7041832462
 10
493.9031300365
 20
-139.8469396321
  0
LWPOLYLINE
  5
145
330
1F
100
AcDbEntity
  8
0
  6
Continuous
 62
     7
370
    25
100
AcDbPolyline
 90
       42
 70
   128
 43
0.0
 10
435.213267198
 20
-271.712773699
 10
435.1138232962
 20
-273.2659138872
 10
434.8178224715
 20
-274.8974652709
 10
434.3322027325
 20
-276.5691856685
 10
433.6683465941
 20
-278.2418913707
 10
432.8418142817
 20
-279.8763755736
 10
431.871979012
 20
-281.4343273529
 10
430.7815729019
 20
-282.8792296392
 10
429.5961541463
 20
-284.1772151477
 10
428.3435079562
 20
-285.2978601981
 10
427.0529952965
 20
-286.2148978202
 10
425.7548646903
 20
-286.9068334295
 10
424.4795432187
 20
-287.3574486417
 10
423.256923336
 20
-287.5561814182
 10
422.1156622161
 20
-287.4983736311
 10
421.0825100524
 20
-287.185380246
 10
420.1816830558
 20
-286.6245375625
 10
419.4342958477
 20
-285.8289912577
 10
418.8578665509
 20
-284.8173882629
 10
418.4659061794
 20
-283.6134396948
 10
418.2676019521
 20
-282.2453650873
 10
418.2676019521
 20
-280.7452309499
 10
418.4659061794
 20
-279.1481991552
 10
418.8578665509
 20
-277.4917027748
 10
419.4342958477
 20
-275.81456868
 10
420.1816830558
 20
-274.1561074725
 10
421.0825100524
 20
-272.5551920774
 10
422.1156622161
 20
-271.0493465946
 10
423.256923336
 20
-269.6738667659
 10
424.4795432187
 20
-268.4609926727
 10
425.7548646903
 20
-267.4391530559
 10
427.0529952965
 20
-266.6322989699
 10
428.3435079562
 20
-266.0593423906
 10
429.5961541463
 20
-265.7337129347
 10
430.7815729019
 20
-265.6630430806
 10
431.871979012
 20
-265.8489892698
 10
432.8418142817
 20
-266.2871930812
 10
433.6683465941
 20
-266.9673833889
 10
434.3322027325
 20
-267.8736171086
 10
434.8178224715
 20
-268.98465289
 10
435.1138232962
 20
-270.274448996
 10
435.213267198
 20
-271.712773699
  0
LWPOLYLINE
  5
146
330
1F
100
AcDbEntity
  8
0
  6
Continuous
 62
     7
370
    25
100
AcDbPolyline
 90
       42
 70
   128
 43
0.0
 10
520.0660809404
 20
-124.7433895634
 10
519.9666370386
 20
-126.2965297516
 10
519.6706362139
 20
-127.9280811353
 10
519.1850164749
 20
-129.5998015328
 10
518.5211603365
 20
-131.272507235
 10
517.6946280241
 20
-132.906991438
 10
516.7247927544
 20
-134.4649432172
 10
515.6343866443
 20
-135.9098455036
 10
514.4489678887
 20
-137.207831012
 10
513.1963216986
 20
-138.3284760624
 10
511.9058090389
 20
-139.2455136846
 10
510.6076784327
 20
-139.9374492939
 10
509.3323569611
 20
-140.3880645061
 10
508.1097370784
 20
-140.5867972825
 10
506.9684759585
 20
-140.5289894955
 10
505.9353237948
 20
-140.2159961103
 10
505.0344967982
 20
-139.6551534268
 10
504.2871095901
 20
-138.8596071221
 10
503.7106802933
 20
-137.8480041273
 10
503.3187199218
 20
-136.6440555591
 10
503.1204156945
 20
-135.2759809517
 10
503.1204156945
 20
-133.7758468142
 10
503.3187199218
 20
-132.1788150195
 10
503.7106802933
 20
-130.5223186392
 10
504.2871095901
 20
-128.8451845444
 10
505.0344967982
 20
-127.1867233369
 10
505.9353237948
 20
-125.5858079417
 10
506.9684759585
 20
-124.0799624589
 10
508.1097370784
 20
-122.7044826302
 10
509.3323569611
 20
-121.4916085371
 10
510.6076784327
 20
-120.4697689202
 10
511.9058090389
 20
-119.6629148342
 10
513.1963216986
 20
-119.0899582549
 10
514.4489678887
 20
-118.764328799
 10
515.6343866443
 20
-118.6936589449
 10
516.7247927544
 20
-118.8796051341
 10
517.6946280241
 20
-119.3178089455
 10
518.5211603365
 20
-119.9979992533
 10
519.1850164749
 20
-120.9042329729
 10
519.6706362139
 20
-122.0152687543
 10
519.9666370386
 20
-123.3050648603
 10
520.0660809404
 20
-124.7433895634
  0
LWPOLYLINE
  5
147
330
1F
100
AcDbEntity
  8
0
  6
Continuous
 62
     7
370
    25
100
AcDbPolyline
 90
       42
 70
   128
 43
0.0
 10
375.213267198
 20
-277.6509244219
 10
375.1138232962
 20
-279.2040646101
 10
374.8178224715
 20
-280.8356159937
 10
374.3322027325
 20
-282.5073363913
 10
373.6683465941
 20
-284.1800420935
 10
372.8418142817
 20
-285.8145262965
 10
371.871979012
 20
-287.3724780757
 10
370.7815729019
 20
-288.8173803621
 10
369.5961541463
 20
-290.1153658705
 10
368.3435079562
 20
-291.2360109209
 10
367.0529952965
 20
-292.1530485431
 10
365.7548646903
 20
-292.8449841523
 10
364.4795432187
 20
-293.2955993646
 10
363.256923336
 20
-293.494332141
 10
362.1156622161
 20
-293.4365243539
 10
361.0825100524
 20
-293.1235309688
 10
360.1816830558
 20
-292.5626882853
 10
359.4342958477
 20
-291.7671419806
 10
358.8578665509
 20
-290.7555389858
 10
358.4659061794
 20
-289.5515904176
 10
358.2676019521
 20
-288.1835158102
 10
358.2676019521
 20
-286.6833816727
 10
358.4659061794
 20
-285.086349878
 10
358.8578665509
 20
-283.4298534976
 10
359.4342958477
 20
-281.7527194029
 10
360.1816830558
 20
-280.0942581954
 10
361.0825100524
 20
-278.4933428002
 10
362.1156622161
 20
-276.9874973174
 10
363.256923336
 20
-275.6120174887
 10
364.4795432187
 20
-274.3991433956
 10
365.7548646903
 20
-273.3773037787
 10
367.0529952965
 20
-272.5704496927
 10
368.3435079562
 20
-271.9974931134
 10
369.5961541463
 20
-271.6718636575
 10
370.7815729019
 20
-271.6011938034
 10
371.871979012
 20
-271.7871399926
 10
372.8418142817
 20
-272.225343804
 10
373.6683465941
 20
-272.9055341117
 10
374.3322027325
 20
-273.8117678314
 10
374.8178224715
 20
-274.9228036128
 10
375.1138232962
 20
-276.2125997188
 10
375.213267198
 20
-277.6509244219
  0
LWPOLYLINE
  5
148
330
1F
100
AcDbEntity
  8
0
  6
Continuous
 62
     7
370
    25
100
AcDbPolyline
 90
       42
 70
   128
 43
0.0
 10
375.213267198
 20
-139.0793535739
 10
375.1138232962
 20
-140.6324937621
 10
374.8178224716
 20
-142.2640451457
 10
374.3322027325
 20
-143.9357655433
 10
373.6683465941
 20
-145.6084712455
 10
372.8418142817
 20
-147.2429554485
 10
371.871979012
 20
-148.8009072277
 10
370.7815729019
 20
-150.2458095141
 10
369.5961541463
 20
-151.5437950225
 10
368.3435079562
 20
-152.6644400729
 10
367.0529952965
 20
-153.5814776951
 10
365.7548646903
 20
-154.2734133043
 10
364.4795432187
 20
-154.7240285166
 10
363.256923336
 20
-154.922761293
 10
362.1156622161
 20
-154.8649535059
 10
361.0825100524
 20
-154.5519601208
 10
360.1816830558
 20
-153.9911174373
 10
359.4342958478
 20
-153.1955711326
 10
358.8578665509
 20
-152.1839681377
 10
358.4659061794
 20
-150.9800195696
 10
358.2676019521
 20
-149.6119449622
 10
358.2676019521
 20
-148.1118108247
 10
358.4659061794
 20
-146.51477903
 10
358.8578665509
 20
-144.8582826496
 10
359.4342958478
 20
-143.1811485549
 10
360.1816830558
 20
-141.5226873474
 10
361.0825100524
 20
-139.9217719522
 10
362.1156622161
 20
-138.4159264694
 10
363.256923336
 20
-137.0404466407
 10
364.4795432187
 20
-135.8275725476
 10
365.7548646903
 20
-134.8057329307
 10
367.0529952965
 20
-133.9988788447
 10
368.3435079562
 20
-133.4259222654
 10
369.5961541463
 20
-133.1002928095
 10
370.7815729019
 20
-133.0296229554
 10
371.871979012
 20
-133.2155691446
 10
372.8418142817
 20
-133.653772956
 10
373.6683465941
 20
-134.3339632637
 10
374.3322027325
 20
-135.2401969834
 10
374.8178224716
 20
-136.3512327648
 10
375.1138232962
 20
-137.6410288708
 10
375.213267198
 20
-139.0793535739
  0
LWPOLYLINE
  5
149
330
1F
100
AcDbEntity
  8
0
  6
Continuous
 62
     7
370
    25
100
AcDbPolyline
 90
        3
 70
   128
 43
0.0
 10
492.9346456345
 20
-204.1565142123
 10
492.8232235714
 20
-204.0947463496
 10
492.7623311895
 20
-204.063085279
  0
ARC
  5
14A
330
1F
100
AcDbEntity
  8
0
  6
Continuous
 62
     7
370
    25
100
AcDbCircle
 10
458.4090254572
 20
-125.3623883681
 30
0.0
 40
32.02427931987547
100
AcDbArc
 50
43.0065077899
 51
79.5985570297
  0
ARC
  5
14B
330
1F
100
AcDbEntity
  8
0
  6
Continuous
 62
     7
370
    25
100
AcDbCircle
 10
396.4636106685
 20
-232.701171105
 30
0.0
 40
32.03019957585644
100
AcDbArc
 50
222.7445091704
 51
259.6192935841
  0
LINE
  5
14C
330
1F
100
AcDbEntity
  8
0
  6
Continuous
 62
     7
370
    25
100
AcDbLine
 10
388.8650133142
 20
-263.8110033638
 30
0.0
 11
388.5136609143
 21
-263.4390388328
 31
0.0
  0
LWPOLYLINE
  5
14D
330
1F
100
AcDbEntity
  8
0
  6
Continuous
 62
     7
370
    25
100
AcDbPolyline
 90
        3
 70
   128
 43
0.0
 10
479.7052041313
 20
-102.8369467783
 10
480.2924446577
 20
-102.9524740511
 10
481.5615210819
 20
-103.2385438655
  0
LWPOLYLINE
  5
14E
330
1F
100
AcDbEntity
  8
0
  6
Continuous
 62
     7
370
    25
100
AcDbPolyline
 90
        3
 70
   128
 43
0.0
 10
517.7874593769
 20
-120.523504804
 10
517.6760373138
 20
-120.4617369414
 10
517.6151449318
 20
-120.4300758708
  0
LWPOLYLINE
  5
14F
330
1F
100
AcDbEntity
  8
0
  6
Continuous
 62
     7
370
    25
100
AcDbPolyline
 90
        3
 70
   128
 43
0.0
 10
432.9346456345
 20
-267.4928889397
 10
432.8232235714
 20
-267.4311210771
 10
432.7623311895
 20
-267.3994600065
  0
LWPOLYLINE
  5
150
330
1F
100
AcDbEntity
  8
0
  6
Continuous
 62
     7
370
    25
100
AcDbPolyline
 90
        3
 70
   128
 43
0.0
 10
492.9346456345
 20
-65.5849433643
 10
492.8232235714
 20
-65.5231755016
 10
492.7623311895
 20
-65.491514431
  0
LWPOLYLINE
  5
151
330
1F
100
AcDbEntity
  8
0
  6
Continuous
 62
     7
370
    25
100
AcDbPolyline
 90
        3
 70
   128
 43
0.0
 10
372.9346456345
 20
-273.4310396625
 10
372.8232235714
 20
-273.3692717999
 10
372.7623311895
 20
-273.3376107293
  0
LWPOLYLINE
  5
152
330
1F
100
AcDbEntity
  8
0
  6
Continuous
 62
     7
370
    25
100
AcDbPolyline
 90
        3
 70
   128
 43
0.0
 10
432.9346456345
 20
-71.5230940871
 10
432.8232235714
 20
-71.4613262245
 10
432.7623311895
 20
-71.4296651539
  0
LWPOLYLINE
  5
153
330
1F
100
AcDbEntity
  8
0
  6
Continuous
 62
     7
370
    25
100
AcDbPolyline
 90
        3
 70
   128
 43
0.0
 10
348.0818318921
 20
-218.4924782228
 10
347.970409829
 20
-218.4307103601
 10
347.9095174471
 20
-218.3990492895
  0
LWPOLYLINE
  5
154
330
1F
100
AcDbEntity
  8
0
  6
Continuous
 62
     7
370
    25
100
AcDbPolyline
 90
        3
 70
   128
 43
0.0
 10
372.9346456345
 20
-134.8594688145
 10
372.8232235714
 20
-134.7977009519
 10
372.7623311895
 20
-134.7660398813
  0
LWPOLYLINE
  5
155
330
1F
100
AcDbEntity
  8
0
  6
Continuous
 62
     1
370
    25
100
AcDbPolyline
 90
       50
 70
   128
 43
0.0
 10
528.1978089241
 20
-120.8654510322
 10
528.0991850495
 20
-126.0692478139
 10
527.8035064869
 20
-131.3767266207
 10
527.3113520407
 20
-136.7774978137
 10
526.6236851266
 20
-142.2609891296
 10
525.7418518846
 20
-147.8164663767
 10
524.6675785449
 20
-153.4330544474
 10
523.4029680479
 20
-159.0997586068
 10
521.9504959281
 20
-164.8054860154
 10
520.3130054678
 20
-170.5390674438
 10
518.4937021315
 20
-176.2892791371
 10
516.496147291
 20
-182.044864786
 10
514.3242512536
 20
-187.7945575612
 10
511.9822656079
 20
-193.5271021691
 10
509.4747749006
 20
-199.2312768845
 10
506.8066876627
 20
-204.8959155174
 10
503.9832268001
 20
-210.5099292718
 10
501.0099193702
 20
-216.0623284521
 10
497.8925857617
 20
-221.5422439761
 10
494.6373283018
 20
-226.9389486519
 10
491.2505193096
 20
-232.2418781766
 10
487.7387886229
 20
-237.4406518167
 10
484.1090106194
 20
-242.5250927286
 10
480.3682907599
 20
-247.4852478805
 10
476.5239516794
 20
-252.3114075357
 10
472.5835188519
 20
-256.9941242601
 10
468.5547058599
 20
-261.5242314158
 10
464.445399294
 20
-265.8928611053
 10
460.2636433147
 20
-270.0914615308
 10
456.0176239058
 20
-274.1118137349
 10
451.7156528497
 20
-277.9460476893
 10
447.3661514566
 20
-281.5866577009
 10
442.9776340799
 20
-285.0265171048
 10
438.5586914483
 20
-288.2588922145
 10
434.1179738497
 20
-291.2774555041
 10
429.6641741972
 20
-294.0762979941
 10
425.2060110128
 20
-296.6499408189
 10
420.7522113603
 20
-298.9933459519
 10
416.3114937616
 20
-301.1019260674
 10
411.8925511301
 20
-302.9715535208
 10
407.5040337533
 20
-304.5985684287
 10
403.1545323603
 20
-305.9797858329
 10
398.8525613041
 20
-307.1125019355
 10
394.6065418952
 20
-307.9944993915
 10
390.4247859159
 20
-308.6240516495
 10
386.31547935
 20
-308.9999263314
 10
382.286666358
 20
-309.1213876448
 10
378.3462335306
 20
-308.9881978236
 10
374.50189445
 20
-308.600617593
 10
370.9985490837
 20
-308.0082654044
  0
LWPOLYLINE
  5
156
330
1F
100
AcDbEntity
  8
0
  6
Continuous
 62
     1
370
    25
100
AcDbPolyline
 90
       15
 70
   128
 43
0.0
 10
511.6489351287
 20
-66.5285335729
 10
511.9822656079
 20
-66.9258676978
 10
514.3242512536
 20
-69.9544132353
 10
516.496147291
 20
-73.1964882219
 10
518.4937021315
 20
-76.6457461435
 10
520.3130054678
 20
-80.2954349157
 10
521.9504959281
 20
-84.1384101013
 10
523.4029680479
 20
-88.167148896
 10
524.6675785449
 20
-92.3737648544
 10
525.7418518846
 20
-96.7500233283
 10
526.6236851266
 20
-101.287357586
 10
527.3113520407
 20
-105.9768855828
 10
527.8035064869
 20
-110.8094273474
 10
528.0991850495
 20
-115.7755229523
 10
528.1978089241
 20
-120.8654510322
  0
LWPOLYLINE
  5
157
330
1F
100
AcDbEntity
  8
0
  6
Continuous
 62
     1
370
    25
100
AcDbPolyline
 90
       15
 70
   128
 43
0.0
 10
543.7541581102
 20
-129.8459402623
 10
543.6555342357
 20
-124.7560121824
 10
543.359855673
 20
-119.7899165774
 10
542.8677012269
 20
-114.9573748129
 10
542.1800343127
 20
-110.267846816
 10
541.2982010707
 20
-105.7305125583
 10
540.223927731
 20
-101.3542540845
 10
538.959317234
 20
-97.1476381261
 10
537.5068451142
 20
-93.1188993314
 10
535.8693546539
 20
-89.2759241457
 10
534.0500513176
 20
-85.6262353735
 10
532.0524964771
 20
-82.176977452
 10
529.8806004397
 20
-78.9349024654
 10
527.538614794
 20
-75.9063569278
 10
526.9618159452
 20
-75.2236786427
  0
LWPOLYLINE
  5
158
330
1F
100
AcDbEntity
  8
0
  6
Continuous
 62
     1
370
    25
100
AcDbPolyline
 90
       50
 70
   128
 43
0.0
 10
387.522367457
 20
-317.1762131174
 10
390.0582436361
 20
-317.581106823
 10
393.9025827167
 20
-317.9686870536
 10
397.8430155441
 20
-318.1018768749
 10
401.8718285361
 20
-317.9804155614
 10
405.981135102
 20
-317.6045408796
 10
410.1628910813
 20
-316.9749886216
 10
414.4089104902
 20
-316.0929911655
 10
418.7108815464
 20
-314.960275063
 10
423.0603829394
 20
-313.5790576588
 10
427.4489003162
 20
-311.9520427509
 10
431.8678429477
 20
-310.0824152974
 10
436.3085605464
 20
-307.9738351819
 10
440.7623601989
 20
-305.630430049
 10
445.2205233833
 20
-303.0567872241
 10
449.6743230358
 20
-300.2579447341
 10
454.1150406344
 20
-297.2393814446
 10
458.533983266
 20
-294.0070063348
 10
462.9225006427
 20
-290.567146931
 10
467.2720020358
 20
-286.9265369193
 10
471.5739730919
 20
-283.092302965
 10
475.8199925009
 20
-279.0719507609
 10
480.0017484801
 20
-274.8733503354
 10
484.111055046
 20
-270.5047206459
 10
488.139868038
 20
-265.9746134902
 10
492.0803008655
 20
-261.2918967657
 10
495.924639946
 20
-256.4657371105
 10
499.6653598055
 20
-251.5055819586
 10
503.295137809
 20
-246.4211410467
 10
506.8068684957
 20
-241.2223674066
 10
510.1936774879
 20
-235.9194378819
 10
513.4489349478
 20
-230.5227332061
 10
516.5662685563
 20
-225.0428176821
 10
519.5395759862
 20
-219.4904185019
 10
522.3630368488
 20
-213.8764047475
 10
525.0311240867
 20
-208.2117661145
 10
527.538614794
 20
-202.5075913992
 10
529.8806004397
 20
-196.7750467912
 10
532.0524964771
 20
-191.025354016
 10
534.0500513176
 20
-185.2697683672
 10
535.8693546539
 20
-179.5195566738
 10
537.5068451142
 20
-173.7859752454
 10
538.959317234
 20
-168.0802478369
 10
540.223927731
 20
-162.4135436775
 10
541.2982010707
 20
-156.7969556068
 10
542.1800343127
 20
-151.2414783597
 10
542.8677012269
 20
-145.7579870437
 10
543.359855673
 20
-140.3572158507
 10
543.6555342357
 20
-135.0497370439
 10
543.7541581102
 20
-129.8459402623
  0
LWPOLYLINE
  5
159
330
1F
100
AcDbEntity
  8
0
  6
Continuous
 62
     1
370
    25
100
AcDbPolyline
 90
       21
 70
   128
 43
0.0
 10
492.7623311895
 20
-204.063085279
 10
491.8535993852
 20
-203.7403029742
 10
490.7695381943
 20
-203.643371568
 10
489.5991166141
 20
-203.8064626036
 10
488.3726479489
 20
-204.2253521088
 10
487.1218970926
 20
-204.8891910655
 10
485.8792578357
 20
-205.7807863933
 10
484.676913882
 20
-206.8770462417
 10
483.5460053084
 20
-208.1495780565
 10
482.515822053
 20
-209.5654239319
 10
481.6130453209
 20
-211.0879142036
 10
480.8610565553
 20
-212.6776171732
 10
480.2793318702
 20
-214.293360369
 10
479.8829376293
 20
-215.8932968907
 10
479.6821402354
 20
-217.435989223
 10
479.6821402354
 20
-218.8814824446
 10
479.8829376293
 20
-220.1923390406
 10
480.2793318702
 20
-221.3346085136
 10
480.8610565553
 20
-222.2787066843
 10
481.6130453209
 20
-223.0001819059
 10
481.8750019979
 20
-223.1738637153
  0
LWPOLYLINE
  5
15A
330
1F
100
AcDbEntity
  8
0
  6
Continuous
 62
     1
370
    25
100
AcDbPolyline
 90
       53
 70
   128
 43
0.0
 10
464.1908142537
 20
-93.8643664577
 10
461.7029456818
 20
-93.4841861948
 10
458.5692823747
 20
-93.247321464
 10
455.3442971246
 20
-93.2620853939
 10
452.0374493689
 20
-93.5284346793
 10
448.658438662
 20
-94.0455880719
 10
445.2171762243
 20
-94.8120286715
 10
441.7237558716
 20
-95.825508376
 10
438.1884244076
 20
-97.0830544747
 10
434.6215515686
 20
-98.5809783683
 10
431.0335996073
 20
-100.3148863878
 10
427.435092605
 20
-102.2796926823
 10
423.8365856026
 20
-104.4696341364
 10
420.2486336413
 20
-106.8782872746
 10
416.6817608024
 20
-109.498587102
 10
413.1464293384
 20
-112.3228478279
 10
409.6530089856
 20
-115.342785409
 10
406.2117465479
 20
-118.549541848
 10
402.832735841
 20
-121.9337111757
 10
399.5258880854
 20
-125.4853670404
 10
396.3009028353
 20
-129.1940918236
 10
393.1672395282
 20
-133.0490071964
 10
390.1340897384
 20
-137.0388060278
 10
387.2103502169
 20
-141.1517855505
 10
384.4045967954
 20
-145.3758816868
 10
381.7250592323
 20
-149.698704435
 10
379.1795970727
 20
-154.1075742112
 10
376.7756765959
 20
-158.5895590406
 10
374.5203489147
 20
-163.1315124895
 10
372.4202292938
 20
-167.7201122259
 10
370.481477746
 20
-172.3418990962
 10
368.7097809635
 20
-176.9833166031
 10
367.1103356383
 20
-181.6307506693
 10
365.6878332192
 20
-186.2705695701
 10
364.4464461507
 20
-190.8891639171
 10
363.389815635
 20
-195.4729865774
 10
362.5210409516
 20
-200.0085924093
 10
361.8426703662
 20
-204.4826776994
 10
361.3566936567
 20
-208.8821191848
 10
361.0645362765
 20
-213.1940125454
 10
360.9670551734
 20
-217.4057102553
 10
361.0645362765
 20
-221.5048586792
 10
361.3566936567
 20
-225.4794343086
 10
361.8426703662
 20
-229.3177790284
 10
362.5210409516
 20
-233.0086343122
 10
363.389815635
 20
-236.5411742455
 10
364.4464461507
 20
-239.90503728
 10
365.6878332192
 20
-243.0903566259
 10
367.1103356383
 20
-246.0877891926
 10
368.7097809635
 20
-248.8885429941
 10
370.481477746
 20
-251.4844029369
 10
372.4202292938
 20
-253.8677549164
 10
372.9410306321
 20
-254.4410403158
  0
LWPOLYLINE
  5
15B
330
1F
100
AcDbEntity
  8
0
  6
Continuous
 62
     1
370
    25
100
AcDbPolyline
 90
       53
 70
   128
 43
0.0
 10
388.5136609143
 20
-263.4390388328
 10
387.9765784799
 20
-262.8482441465
 10
386.0378269321
 20
-260.4648921669
 10
384.2661301496
 20
-257.8690322242
 10
382.6666848244
 20
-255.0682784227
 10
381.2441824053
 20
-252.0708458559
 10
380.0027953368
 20
-248.88552651
 10
378.9461648212
 20
-245.5216634755
 10
378.0773901377
 20
-241.9891235422
 10
377.3990195524
 20
-238.2982682585
 10
376.9130428428
 20
-234.4599235387
 10
376.6208854626
 20
-230.4853479092
 10
376.5234043595
 20
-226.3861994853
 10
376.6208854626
 20
-222.1745017755
 10
376.9130428428
 20
-217.8626084148
 10
377.3990195524
 20
-213.4631669295
 10
378.0773901377
 20
-208.9890816393
 10
378.9461648212
 20
-204.4534758074
 10
380.0027953368
 20
-199.8696531472
 10
381.2441824053
 20
-195.2510588001
 10
382.6666848244
 20
-190.6112398994
 10
384.2661301496
 20
-185.9638058331
 10
386.0378269321
 20
-181.3223883262
 10
387.9765784799
 20
-176.700601456
 10
390.0766981008
 20
-172.1120017196
 10
392.332025782
 20
-167.5700482707
 10
394.7359462588
 20
-163.0880634413
 10
397.2814084184
 20
-158.6791936651
 10
399.9609459815
 20
-154.3563709169
 10
402.766699403
 20
-150.1322747805
 10
405.6904389245
 20
-146.0192952579
 10
408.7235887143
 20
-142.0294964264
 10
411.8572520214
 20
-138.1745810536
 10
415.0822372715
 20
-134.4658562705
 10
418.3890850271
 20
-130.9142004057
 10
421.7680957341
 20
-127.530031078
 10
425.2093581717
 20
-124.3232746391
 10
428.7027785245
 20
-121.303337058
 10
432.2381099885
 20
-118.4790763321
 10
435.8049828274
 20
-115.8587765046
 10
439.3929347887
 20
-113.4501233665
 10
442.9914417911
 20
-111.2601819124
 10
446.5899487934
 20
-109.2953756179
 10
450.1779007547
 20
-107.5614675983
 10
453.7447735937
 20
-106.0635437048
 10
457.2801050577
 20
-104.8059976061
 10
460.7735254104
 20
-103.7925179016
 10
464.2147878481
 20
-103.0260773019
 10
467.593798555
 20
-102.5089239094
 10
470.9006463107
 20
-102.242574624
 10
474.1256315608
 20
-102.2278106941
 10
477.2592948679
 20
-102.4646754248
 10
479.7052041313
 20
-102.8369467783
  0
LWPOLYLINE
  5
15C
330
1F
100
AcDbEntity
  8
0
  6
Continuous
 62
     1
370
    25
100
AcDbPolyline
 90
       21
 70
   128
 43
0.0
 10
517.6151449318
 20
-120.4300758708
 10
516.7064131276
 20
-120.107293566
 10
515.6223519367
 20
-120.0103621598
 10
514.4519303565
 20
-120.1734531953
 10
513.2254616912
 20
-120.5923427006
 10
511.974710835
 20
-121.2561816572
 10
510.7320715781
 20
-122.1477769851
 10
509.5297276244
 20
-123.2440368335
 10
508.3988190508
 20
-124.5165686482
 10
507.3686357954
 20
-125.9324145237
 10
506.4658590633
 20
-127.4549047954
 10
505.7138702977
 20
-129.044607765
 10
505.1321456126
 20
-130.6603509607
 10
504.7357513717
 20
-132.2602874825
 10
504.5349539778
 20
-133.8029798147
 10
504.5349539778
 20
-135.2484730364
 10
504.7357513717
 20
-136.5593296324
 10
505.1321456126
 20
-137.7015991054
 10
505.7138702977
 20
-138.645697276
 10
506.4658590633
 20
-139.3671724976
 10
506.7278157403
 20
-139.5408543071
  0
LWPOLYLINE
  5
15D
330
1F
100
AcDbEntity
  8
0
  6
Continuous
 62
     1
370
    25
100
AcDbPolyline
 90
       21
 70
   128
 43
0.0
 10
432.7623311895
 20
-267.3994600065
 10
431.8535993852
 20
-267.0766777016
 10
430.7695381943
 20
-266.9797462954
 10
429.5991166141
 20
-267.142837331
 10
428.3726479489
 20
-267.5617268362
 10
427.1218970926
 20
-268.2255657929
 10
425.8792578357
 20
-269.1171611208
 10
424.676913882
 20
-270.2134209692
 10
423.5460053084
 20
-271.4859527839
 10
422.515822053
 20
-272.9017986593
 10
421.6130453209
 20
-274.424288931
 10
420.8610565553
 20
-276.0139919007
 10
420.2793318702
 20
-277.6297350964
 10
419.8829376293
 20
-279.2296716181
 10
419.6821402354
 20
-280.7723639504
 10
419.6821402354
 20
-282.2178571721
 10
419.8829376293
 20
-283.528713768
 10
420.2793318702
 20
-284.670983241
 10
420.8610565553
 20
-285.6150814117
 10
421.6130453209
 20
-286.3365566333
 10
421.8750019979
 20
-286.5102384428
  0
LWPOLYLINE
  5
15E
330
1F
100
AcDbEntity
  8
0
  6
Continuous
 62
     1
370
    25
100
AcDbPolyline
 90
       21
 70
   128
 43
0.0
 10
492.7623311895
 20
-65.491514431
 10
491.8535993852
 20
-65.1687321262
 10
490.7695381943
 20
-65.07180072
 10
489.5991166142
 20
-65.2348917556
 10
488.3726479489
 20
-65.6537812608
 10
487.1218970926
 20
-66.3176202175
 10
485.8792578357
 20
-67.2092155453
 10
484.676913882
 20
-68.3054753937
 10
483.5460053084
 20
-69.5780072085
 10
482.515822053
 20
-70.9938530839
 10
481.6130453209
 20
-72.5163433556
 10
480.8610565553
 20
-74.1060463252
 10
480.2793318702
 20
-75.721789521
 10
479.8829376293
 20
-77.3217260427
 10
479.6821402354
 20
-78.8644183749
 10
479.6821402354
 20
-80.3099115966
 10
479.8829376293
 20
-81.6207681926
 10
480.2793318702
 20
-82.7630376656
 10
480.8610565553
 20
-83.7071358363
 10
481.6130453209
 20
-84.4286110579
 10
481.8750019979
 20
-84.6022928673
  0
LWPOLYLINE
  5
15F
330
1F
100
AcDbEntity
  8
0
  6
Continuous
 62
     1
370
    25
100
AcDbPolyline
 90
       21
 70
   128
 43
0.0
 10
372.7623311895
 20
-273.3376107293
 10
371.8535993852
 20
-273.0148284244
 10
370.7695381943
 20
-272.9178970182
 10
369.5991166141
 20
-273.0809880538
 10
368.3726479489
 20
-273.499877559
 10
367.1218970926
 20
-274.1637165157
 10
365.8792578357
 20
-275.0553118436
 10
364.676913882
 20
-276.151571692
 10
363.5460053084
 20
-277.4241035067
 10
362.515822053
 20
-278.8399493821
 10
361.6130453209
 20
-280.3624396538
 10
360.8610565553
 20
-281.9521426235
 10
360.2793318702
 20
-283.5678858192
 10
359.8829376293
 20
-285.167822341
 10
359.6821402354
 20
-286.7105146732
 10
359.6821402354
 20
-288.1560078949
 10
359.8829376293
 20
-289.4668644909
 10
360.2793318702
 20
-290.6091339639
 10
360.8610565553
 20
-291.5532321345
 10
361.6130453209
 20
-292.2747073561
 10
361.8750019979
 20
-292.4483891656
  0
LWPOLYLINE
  5
160
330
1F
100
AcDbEntity
  8
0
  6
Continuous
 62
     1
370
    25
100
AcDbPolyline
 90
       21
 70
   128
 43
0.0
 10
432.7623311895
 20
-71.4296651539
 10
431.8535993852
 20
-71.106882849
 10
430.7695381943
 20
-71.0099514428
 10
429.5991166142
 20
-71.1730424784
 10
428.3726479489
 20
-71.5919319836
 10
427.1218970926
 20
-72.2557709403
 10
425.8792578357
 20
-73.1473662682
 10
424.676913882
 20
-74.2436261166
 10
423.5460053084
 20
-75.5161579313
 10
422.515822053
 20
-76.9320038067
 10
421.6130453209
 20
-78.4544940784
 10
420.8610565553
 20
-80.0441970481
 10
420.2793318702
 20
-81.6599402438
 10
419.8829376293
 20
-83.2598767655
 10
419.6821402354
 20
-84.8025690978
 10
419.6821402354
 20
-86.2480623195
 10
419.8829376293
 20
-87.5589189155
 10
420.2793318702
 20
-88.7011883884
 10
420.8610565553
 20
-89.6452865591
 10
421.6130453209
 20
-90.3667617807
 10
421.8750019979
 20
-90.5404435902
  0
LWPOLYLINE
  5
161
330
1F
100
AcDbEntity
  8
0
  6
Continuous
 62
     1
370
    25
100
AcDbPolyline
 90
       21
 70
   128
 43
0.0
 10
347.9095174471
 20
-218.3990492895
 10
347.0007856428
 20
-218.0762669847
 10
345.9167244519
 20
-217.9793355785
 10
344.7463028718
 20
-218.1424266141
 10
343.5198342065
 20
-218.5613161193
 10
342.2690833503
 20
-219.225155076
 10
341.0264440933
 20
-220.1167504038
 10
339.8241001396
 20
-221.2130102522
 10
338.6931915661
 20
-222.4855420669
 10
337.6630083106
 20
-223.9013879424
 10
336.7602315785
 20
-225.4238782141
 10
336.0082428129
 20
-227.0135811837
 10
335.4265181278
 20
-228.6293243795
 10
335.0301238869
 20
-230.2292609012
 10
334.829326493
 20
-231.7719532334
 10
334.829326493
 20
-233.2174464551
 10
335.0301238869
 20
-234.5283030511
 10
335.4265181278
 20
-235.6705725241
 10
336.0082428129
 20
-236.6146706947
 10
336.7602315785
 20
-237.3361459163
 10
337.0221882555
 20
-237.5098277258
  0
LWPOLYLINE
  5
162
330
1F
100
AcDbEntity
  8
0
  6
Continuous
 62
     1
370
    25
100
AcDbPolyline
 90
       21
 70
   128
 43
0.0
 10
372.7623311895
 20
-134.7660398813
 10
371.8535993852
 20
-134.4432575764
 10
370.7695381943
 20
-134.3463261702
 10
369.5991166141
 20
-134.5094172058
 10
368.3726479489
 20
-134.928306711
 10
367.1218970926
 20
-135.5921456677
 10
365.8792578357
 20
-136.4837409956
 10
364.676913882
 20
-137.580000844
 10
363.5460053084
 20
-138.8525326587
 10
362.515822053
 20
-140.2683785341
 10
361.6130453209
 20
-141.7908688058
 10
360.8610565553
 20
-143.3805717755
 10
360.2793318702
 20
-144.9963149712
 10
359.8829376293
 20
-146.596251493
 10
359.6821402354
 20
-148.1389438252
 10
359.6821402354
 20
-149.5844370469
 10
359.8829376293
 20
-150.8952936429
 10
360.2793318702
 20
-152.0375631159
 10
360.8610565553
 20
-152.9816612865
 10
361.6130453209
 20
-153.7031365081
 10
361.8750019979
 20
-153.8768183176
  0
ENDSEC
  0
SECTION
  2
OBJECTS
  0
DICTIONARY
  5
C
330
0
100
AcDbDictionary
281
     1
  3
ACAD_GROUP
350
D
  3
ACAD_LAYOUT
350
1A
  3
ACAD_MLINESTYLE
350
17
  3
ACAD_PLOTSETTINGS
350
19
  3
ACAD_PLOTSTYLENAME
350
E
  3
ACAD_SCALELIST
350
47
  3
DWGPROPS
350
163
  0
DICTIONARY
  5
D
102
{ACAD_REACTORS
330
C
102
}
330
C
100
AcDbDictionary
281
     1
  0
DICTIONARY
  5
1A
102
{ACAD_REACTORS
330
C
102
}
330
C
100
AcDbDictionary
281
     1
  3
Layout1
350
1E
  3
Layout2
350
26
  3
Model
350
22
  0
DICTIONARY
  5
17
102
{ACAD_REACTORS
330
C
102
}
330
C
100
AcDbDictionary
281
     1
  3
Standard
350
18
  0
DICTIONARY
  5
19
102
{ACAD_REACTORS
330
C
102
}
330
C
100
AcDbDictionary
281
     1
  0
ACDBDICTIONARYWDFLT
  5
E
102
{ACAD_REACTORS
330
C
102
}
330
C
100
AcDbDictionary
281
     1
  3
Normal
350
F
100
AcDbDictionaryWithDefault
340
F
  0
DICTIONARY
  5
47
102
{ACAD_REACTORS
330
C
102
}
330
C
100
AcDbDictionary
281
     1
  3
A0
350
48
  3
A1
350
49
  3
A2
350
4A
  3
A3
350
4B
  3
A4
350
4C
  3
A5
350
4D
  3
A6
350
4E
  3
A7
350
4F
  3
A8
350
50
  3
A9
350
51
  3
B0
350
52
  3
B1
350
53
  3
B2
350
54
  3
B3
350
55
  3
B4
350
56
  3
B5
350
57
  3
B6
350
58
  3
B7
350
59
  3
B8
350
5A
  3
B9
350
5B
  3
C0
350
5C
  3
C1
350
5D
  3
C2
350
5E
  3
C3
350
5F
  3
C4
350
60
  3
C5
350
61
  3
C6
350
62
  3
C7
350
63
  3
C8
350
64
  3
C9
350
65
  3
D0
350
66
  3
D1
350
67
  3
D2
350
68
  0
XRECORD
  5
163
102
{ACAD_REACTORS
330
C
102
}
330
C
100
AcDbXrecord
280
     1
  1
DWGPROPS COOKIE
  2

  3

  4

  6

  7

  8
b.kav
  9

300
=
301
=
302
=
303
=
304
=
305
=
306
=
307
=
308
=
309
=
 40
0.0
 41
2459741.467501076
 42
2459741.467503067
  1

 90
        0
  0
LAYOUT
  5
1E
102
{ACAD_REACTORS
330
1A
102
}
330
1A
100
AcDbPlotSettings
  1

  2
none_device
  4

  6

 40
0.0
 41
0.0
 42
0.0
 43
0.0
 44
0.0
 45
0.0
 46
0.0
 47
0.0
 48
0.0
 49
0.0
140
0.0
141
0.0
142
1.0
143
1.0
 70
   688
 72
     1
 73
     0
 74
     5
  7

 75
    16
147
1.0
148
0.0
149
0.0
100
AcDbLayout
  1
Layout1
 70
     1
 71
     1
 10
0.0
 20
0.0
 11
420.0
 21
297.0
 12
0.0
 22
0.0
 32
0.0
 14
1.0000000000E+20
 24
1.0000000000E+20
 34
1.0000000000E+20
 15
-1.0000000000E+20
 25
-1.0000000000E+20
 35
-1.0000000000E+20
146
0.0
 13
0.0
 23
0.0
 33
0.0
 16
1.0
 26
0.0
 36
0.0
 17
0.0
 27
1.0
 37
0.0
 76
     0
330
1B
  0
LAYOUT
  5
26
102
{ACAD_REACTORS
330
1A
102
}
330
1A
100
AcDbPlotSettings
  1

  2
none_device
  4

  6

 40
0.0
 41
0.0
 42
0.0
 43
0.0
 44
0.0
 45
0.0
 46
0.0
 47
0.0
 48
0.0
 49
0.0
140
0.0
141
0.0
142
1.0
143
1.0
 70
   688
 72
     1
 73
     0
 74
     5
  7

 75
    16
147
1.0
148
0.0
149
0.0
100
AcDbLayout
  1
Layout2
 70
     1
 71
     2
 10
0.0
 20
0.0
 11
0.0
 21
0.0
 12
0.0
 22
0.0
 32
0.0
 14
0.0
 24
0.0
 34
0.0
 15
0.0
 25
0.0
 35
0.0
146
0.0
 13
0.0
 23
0.0
 33
0.0
 16
1.0
 26
0.0
 36
0.0
 17
0.0
 27
1.0
 37
0.0
 76
     0
330
23
  0
LAYOUT
  5
22
102
{ACAD_REACTORS
330
1A
102
}
330
1A
100
AcDbPlotSettings
  1

  2
none_device
  4
Letter_(8.50_x_11.00_Inches)
  6

 40
6.35
 41
6.35
 42
6.35000508
 43
6.35000508
 44
215.9
 45
279.4
 46
0.0
 47
0.0
 48
0.0
 49
0.0
140
0.0
141
0.0
142
1.0
143
1.0
 70
  1712
 72
     1
 73
     0
 74
     0
  7

 75
     0
147
1.0
148
0.0
149
0.0
100
AcDbLayout
  1
Model
 70
     1
 71
     0
 10
0.0
 20
0.0
 11
279.4
 21
215.9
 12
0.0
 22
0.0
 32
0.0
 14
0.0
 24
0.0
 34
0.0
 15
279.4
 25
215.9
 35
0.0
146
0.0
 13
0.0
 23
0.0
 33
0.0
 16
1.0
 26
0.0
 36
0.0
 17
0.0
 27
1.0
 37
0.0
 76
     0
330
1F
331
29
  0
MLINESTYLE
  5
18
102
{ACAD_REACTORS
330
17
102
}
330
17
100
AcDbMlineStyle
  2
Standard
 70
     0
  3

 62
   256
 51
90.0
 52
90.0
 71
     2
 49
0.5
 62
   256
  6
BYLAYER
 49
-0.5
 62
   256
  6
BYLAYER
  0
ACDBPLACEHOLDER
  5
F
102
{ACAD_REACTORS
330
E
102
}
330
E
  0
SCALE
  5
48
102
{ACAD_REACTORS
330
47
102
}
330
47
100
AcDbScale
 70
     0
300
1:1
140
1.0
141
1.0
290
     1
  0
SCALE
  5
49
102
{ACAD_REACTORS
330
47
102
}
330
47
100
AcDbScale
 70
     0
300
1:2
140
1.0
141
2.0
290
     0
  0
SCALE
  5
4A
102
{ACAD_REACTORS
330
47
102
}
330
47
100
AcDbScale
 70
     0
300
1:4
140
1.0
141
4.0
290
     0
  0
SCALE
  5
4B
102
{ACAD_REACTORS
330
47
102
}
330
47
100
AcDbScale
 70
     0
300
1:5
140
1.0
141
5.0
290
     0
  0
SCALE
  5
4C
102
{ACAD_REACTORS
330
47
102
}
330
47
100
AcDbScale
 70
     0
300
1:8
140
1.0
141
8.0
290
     0
  0
SCALE
  5
4D
102
{ACAD_REACTORS
330
47
102
}
330
47
100
AcDbScale
 70
     0
300
1:10
140
1.0
141
10.0
290
     0
  0
SCALE
  5
4E
102
{ACAD_REACTORS
330
47
102
}
330
47
100
AcDbScale
 70
     0
300
1:16
140
1.0
141
16.0
290
     0
  0
SCALE
  5
4F
102
{ACAD_REACTORS
330
47
102
}
330
47
100
AcDbScale
 70
     0
300
1:20
140
1.0
141
20.0
290
     0
  0
SCALE
  5
50
102
{ACAD_REACTORS
330
47
102
}
330
47
100
AcDbScale
 70
     0
300
1:30
140
1.0
141
30.0
290
     0
  0
SCALE
  5
51
102
{ACAD_REACTORS
330
47
102
}
330
47
100
AcDbScale
 70
     0
300
1:40
140
1.0
141
40.0
290
     0
  0
SCALE
  5
52
102
{ACAD_REACTORS
330
47
102
}
330
47
100
AcDbScale
 70
     0
300
1:50
140
1.0
141
50.0
290
     0
  0
SCALE
  5
53
102
{ACAD_REACTORS
330
47
102
}
330
47
100
AcDbScale
 70
     0
300
1:100
140
1.0
141
100.0
290
     0
  0
SCALE
  5
54
102
{ACAD_REACTORS
330
47
102
}
330
47
100
AcDbScale
 70
     0
300
2:1
140
2.0
141
1.0
290
     0
  0
SCALE
  5
55
102
{ACAD_REACTORS
330
47
102
}
330
47
100
AcDbScale
 70
     0
300
4:1
140
4.0
141
1.0
290
     0
  0
SCALE
  5
56
102
{ACAD_REACTORS
330
47
102
}
330
47
100
AcDbScale
 70
     0
300
8:1
140
8.0
141
1.0
290
     0
  0
SCALE
  5
57
102
{ACAD_REACTORS
330
47
102
}
330
47
100
AcDbScale
 70
     0
300
10:1
140
10.0
141
1.0
290
     0
  0
SCALE
  5
58
102
{ACAD_REACTORS
330
47
102
}
330
47
100
AcDbScale
 70
     0
300
100:1
140
100.0
141
1.0
290
     0
  0
SCALE
  5
59
102
{ACAD_REACTORS
330
47
102
}
330
47
100
AcDbScale
 70
     0
300
1/128" = 1'-0"
140
0.0078125
141
12.0
290
     0
  0
SCALE
  5
5A
102
{ACAD_REACTORS
330
47
102
}
330
47
100
AcDbScale
 70
     0
300
1/64" = 1'-0"
140
0.015625
141
12.0
290
     0
  0
SCALE
  5
5B
102
{ACAD_REACTORS
330
47
102
}
330
47
100
AcDbScale
 70
     0
300
1/32" = 1'-0"
140
0.03125
141
12.0
290
     0
  0
SCALE
  5
5C
102
{ACAD_REACTORS
330
47
102
}
330
47
100
AcDbScale
 70
     0
300
1/16" = 1'-0"
140
0.0625
141
12.0
290
     0
  0
SCALE
  5
5D
102
{ACAD_REACTORS
330
47
102
}
330
47
100
AcDbScale
 70
     0
300
3/32" = 1'-0"
140
0.09375
141
12.0
290
     0
  0
SCALE
  5
5E
102
{ACAD_REACTORS
330
47
102
}
330
47
100
AcDbScale
 70
     0
300
1/8" = 1'-0"
140
0.125
141
12.0
290
     0
  0
SCALE
  5
5F
102
{ACAD_REACTORS
330
47
102
}
330
47
100
AcDbScale
 70
     0
300
3/16" = 1'-0"
140
0.1875
141
12.0
290
     0
  0
SCALE
  5
60
102
{ACAD_REACTORS
330
47
102
}
330
47
100
AcDbScale
 70
     0
300
1/4" = 1'-0"
140
0.25
141
12.0
290
     0
  0
SCALE
  5
61
102
{ACAD_REACTORS
330
47
102
}
330
47
100
AcDbScale
 70
     0
300
3/8" = 1'-0"
140
0.375
141
12.0
290
     0
  0
SCALE
  5
62
102
{ACAD_REACTORS
330
47
102
}
330
47
100
AcDbScale
 70
     0
300
1/2" = 1'-0"
140
0.5
141
12.0
290
     0
  0
SCALE
  5
63
102
{ACAD_REACTORS
330
47
102
}
330
47
100
AcDbScale
 70
     0
300
3/4" = 1'-0"
140
0.75
141
12.0
290
     0
  0
SCALE
  5
64
102
{ACAD_REACTORS
330
47
102
}
330
47
100
AcDbScale
 70
     0
300
1" = 1'-0"
140
1.0
141
12.0
290
     0
  0
SCALE
  5
65
102
{ACAD_REACTORS
330
47
102
}
330
47
100
AcDbScale
 70
     0
300
1-1/2" = 1'-0"
140
1.5
141
12.0
290
     0
  0
SCALE
  5
66
102
{ACAD_REACTORS
330
47
102
}
330
47
100
AcDbScale
 70
     0
300
3" = 1'-0"
140
3.0
141
12.0
290
     0
  0
SCALE
  5
67
102
{ACAD_REACTORS
330
47
102
}
330
47
100
AcDbScale
 70
     0
300
6" = 1'-0"
140
6.0
141
12.0
290
     0
  0
SCALE
  5
68
102
{ACAD_REACTORS
330
47
102
}
330
47
100
AcDbScale
 70
     0
300
1'-0" = 1'-0"
140
12.0
141
12.0
290
     0
  0
ENDSEC
  0
EOF
